  0
SECTION
  2
HEADER
  9
$ACADVER
  1
AC1009
  9
$INSBASE
 10
0.0
 20
0.0
 30
0.0
  9
$EXTMIN
 10
-125.0093594745486
 20
-43.824519769852373
 30
0.0
  9
$EXTMAX
 10
106.3625903465273
 20
215.58436027199281
 30
0.0
  9
$LIMMIN
 10
0.0
 20
0.0
  9
$LIMMAX
 10
790.0
 20
790.0
  9
$ORTHOMODE
 70
     1
  9
$REGENMODE
 70
     1
  9
$FILLMODE
 70
     1
  9
$QTEXTMODE
 70
     0
  9
$MIRRTEXT
 70
     1
  9
$DRAGMODE
 70
     2
  9
$LTSCALE
 40
4.0
  9
$OSMODE
 70
   167
  9
$ATTMODE
 70
     1
  9
$TEXTSIZE
 40
3.5
  9
$TRACEWID
 40
0.05
  9
$TEXTSTYLE
  7
ISO
  9
$CLAYER
  8
0
  9
$CELTYPE
  6
BYLAYER
  9
$CECOLOR
 62
   256
  9
$DIMSCALE
 40
0.0
  9
$DIMASZ
 40
3.0
  9
$DIMEXO
 40
1.5
  9
$DIMDLI
 40
10.0
  9
$DIMRND
 40
0.0
  9
$DIMDLE
 40
0.0
  9
$DIMEXE
 40
1.5
  9
$DIMTP
 40
0.0
  9
$DIMTM
 40
0.0
  9
$DIMTXT
 40
3.0
  9
$DIMCEN
 40
-5.0
  9
$DIMTSZ
 40
0.0
  9
$DIMTOL
 70
     0
  9
$DIMLIM
 70
     0
  9
$DIMTIH
 70
     0
  9
$DIMTOH
 70
     0
  9
$DIMSE1
 70
     0
  9
$DIMSE2
 70
     0
  9
$DIMTAD
 70
     1
  9
$DIMZIN
 70
     8
  9
$DIMBLK
  1

  9
$DIMASO
 70
     1
  9
$DIMSHO
 70
     1
  9
$DIMPOST
  1

  9
$DIMAPOST
  1

  9
$DIMALT
 70
     0
  9
$DIMALTD
 70
     0
  9
$DIMALTF
 40
25.399999999999999
  9
$DIMLFAC
 40
-1.0
  9
$DIMTOFL
 70
     1
  9
$DIMTVP
 40
0.0
  9
$DIMTIX
 70
     0
  9
$DIMSOXD
 70
     0
  9
$DIMSAH
 70
     0
  9
$DIMBLK1
  1

  9
$DIMBLK2
  1

  9
$DIMSTYLE
  2
MASKIN
  9
$DIMCLRD
 70
   256
  9
$DIMCLRE
 70
   256
  9
$DIMCLRT
 70
     2
  9
$DIMTFAC
 40
1.0
  9
$DIMGAP
 40
1.0
  9
$LUNITS
 70
     2
  9
$LUPREC
 70
     8
  9
$SKETCHINC
 40
0.1
  9
$FILLETRAD
 40
0.0
  9
$AUNITS
 70
     0
  9
$AUPREC
 70
     8
  9
$MENU
  1
ACAD
  9
$ELEVATION
 40
0.0
  9
$PELEVATION
 40
0.0
  9
$THICKNESS
 40
0.0
  9
$LIMCHECK
 70
     0
  9
$BLIPMODE
 70
     0
  9
$CHAMFERA
 40
0.0
  9
$CHAMFERB
 40
0.0
  9
$SKPOLY
 70
     0
  9
$TDCREATE
 40
2454993.5898695718
  9
$TDUPDATE
 40
2455008.4352916549
  9
$TDINDWG
 40
0.0594121065
  9
$TDUSRTIMER
 40
0.0594121065
  9
$USRTIMER
 70
     1
  9
$ANGBASE
 50
0.0
  9
$ANGDIR
 70
     0
  9
$PDMODE
 70
     0
  9
$PDSIZE
 40
0.0
  9
$PLINEWID
 40
0.0
  9
$COORDS
 70
     1
  9
$SPLFRAME
 70
     0
  9
$SPLINETYPE
 70
     6
  9
$SPLINESEGS
 70
     8
  9
$ATTDIA
 70
     0
  9
$ATTREQ
 70
     1
  9
$HANDLING
 70
     1
  9
$HANDSEED
  5
232B
  9
$SURFTAB1
 70
     6
  9
$SURFTAB2
 70
     6
  9
$SURFTYPE
 70
     6
  9
$SURFU
 70
     6
  9
$SURFV
 70
     6
  9
$UCSNAME
  2

  9
$UCSORG
 10
0.0
 20
0.0
 30
0.0
  9
$UCSXDIR
 10
1.0
 20
0.0
 30
0.0
  9
$UCSYDIR
 10
0.0
 20
1.0
 30
0.0
  9
$PUCSNAME
  2

  9
$PUCSORG
 10
0.0
 20
0.0
 30
0.0
  9
$PUCSXDIR
 10
1.0
 20
0.0
 30
0.0
  9
$PUCSYDIR
 10
0.0
 20
1.0
 30
0.0
  9
$USERI1
 70
     0
  9
$USERI2
 70
     0
  9
$USERI3
 70
     0
  9
$USERI4
 70
     0
  9
$USERI5
 70
     0
  9
$USERR1
 40
0.0
  9
$USERR2
 40
0.0
  9
$USERR3
 40
0.0
  9
$USERR4
 40
0.0
  9
$USERR5
 40
0.0
  9
$WORLDVIEW
 70
     1
  9
$SHADEDGE
 70
     3
  9
$SHADEDIF
 70
    70
  9
$TILEMODE
 70
     1
  9
$MAXACTVP
 70
    16
  9
$PLIMCHECK
 70
     0
  9
$PEXTMIN
 10
1.0000000000000000E+020
 20
1.0000000000000000E+020
 30
1.0000000000000000E+020
  9
$PEXTMAX
 10
-1.0000000000000000E+020
 20
-1.0000000000000000E+020
 30
-1.0000000000000000E+020
  9
$PLIMMIN
 10
-5.069427490234375
 20
-5.8737497329711914
  9
$PLIMMAX
 10
291.89889526367187
 20
204.0995779037475
  9
$UNITMODE
 70
     0
  9
$VISRETAIN
 70
     1
  9
$PLINEGEN
 70
     0
  9
$PSLTSCALE
 70
     1
  0
ENDSEC
  0
SECTION
  2
TABLES
  0
TABLE
  2
VPORT
 70
     1
  0
VPORT
  2
*ACTIVE
 70
     0
 10
0.0
 20
0.0
 11
1.0
 21
1.0
 12
92.38338509830578
 22
85.894382766676245
 13
0.0
 23
0.0
 14
1.0
 24
1.0
 15
0.0
 25
0.0
 16
0.0
 26
0.0
 36
1.0
 17
0.0
 27
0.0
 37
0.0
 40
261.48732302070817
 41
2.362776025236593
 42
50.0
 43
0.0
 44
0.0
 50
0.0
 51
0.0
 71
     0
 72
   100
 73
     1
 74
     1
 75
     0
 76
     0
 77
     0
 78
     0
  0
ENDTAB
  0
TABLE
  2
LTYPE
 70
    13
  0
LTYPE
  2
CONTINUOUS
 70
     0
  3
Solid line
 72
    65
 73
     0
 40
0.0
  0
LTYPE
  2
DASHED
 70
     0
  3
__ __ __ __ __ __ __ __ __ __ __ __ __ __ __
 72
    65
 73
     2
 40
0.75
 49
0.5
 49
-0.25
  0
LTYPE
  2
BYGG-01473602$0$NEWDOT
 70
     0
  3
____ . ____ . ____ . ____ . ____ . ____ . ____
 72
    65
 73
     4
 40
2.0
 49
1.0
 49
-0.5
 49
0.0
 49
-0.5
  0
LTYPE
  2
BYGG-014252$0$NEWDOT
 70
     0
  3
____ . ____ . ____ . ____ . ____ . ____ . ____
 72
    65
 73
     4
 40
2.0
 49
1.0
 49
-0.5
 49
0.0
 49
-0.5
  0
LTYPE
  2
BYGG-01482101$0$DASHDOT
 70
     0
  3
__ . __ . __ . __ . __ . __ . __ . __ . __ . __
 72
    65
 73
     4
 40
1.0
 49
0.5
 49
-0.25
 49
0.0
 49
-0.25
  0
LTYPE
  2
BYGG-01482101$0$NEWDOT
 70
     0
  3
____ . ____ . ____ . ____ . ____ . ____ . ____
 72
    65
 73
     4
 40
2.0
 49
1.0
 49
-0.5
 49
0.0
 49
-0.5
  0
LTYPE
  2
BYGG-01482101$0$DASHED
 70
     0
  3
__ __ __ __ __ __ __ __ __ __ __ __ __ __ __
 72
    65
 73
     2
 40
0.75
 49
0.5
 49
-0.25
  0
LTYPE
  2
BYGG-014357$0$NEWDOT
 70
     0
  3
____ . ____ . ____ . ____ . ____ . ____ . ____
 72
    65
 73
     4
 40
2.0
 49
1.0
 49
-0.5
 49
0.0
 49
-0.5
  0
LTYPE
  2
BYGG-014357$0$DASHDOT
 70
     0
  3
__ . __ . __ . __ . __ . __ . __ . __ . __ . __
 72
    65
 73
     4
 40
1.0
 49
0.5
 49
-0.25
 49
0.0
 49
-0.25
  0
LTYPE
  2
BYGG-014357$0$DASHED
 70
     0
  3
__ __ __ __ __ __ __ __ __ __ __ __ __ __ __
 72
    65
 73
     2
 40
0.75
 49
0.5
 49
-0.25
  0
LTYPE
  2
BYGG-014257$0$NEWDOT
 70
     0
  3
____ . ____ . ____ . ____ . ____ . ____ . ____
 72
    65
 73
     4
 40
2.0
 49
1.0
 49
-0.5
 49
0.0
 49
-0.5
  0
LTYPE
  2
BYGG-013688$0$NEWDOT
 70
     0
  3
____ . ____ . ____ . ____ . ____ . ____ . ____
 72
    65
 73
     4
 40
2.0
 49
1.0
 49
-0.5
 49
0.0
 49
-0.5
  0
LTYPE
  2
BYGG-014234$0$DASHDOT
 70
     0
  3
__ . __ . __ . __ . __ . __ . __ . __ . __ . __
 72
    65
 73
     4
 40
1.0
 49
0.5
 49
-0.25
 49
0.0
 49
-0.25
  0
ENDTAB
  0
TABLE
  2
LAYER
 70
   115
  0
LAYER
  2
0
 70
     0
 62
     7
  6
CONTINUOUS
  0
LAYER
  2
SAPA_ANSLUTNING
 70
     0
 62
     6
  6
CONTINUOUS
  0
LAYER
  2
SAPA_ARTIKELNR
 70
     0
 62
     4
  6
CONTINUOUS
  0
LAYER
  2
SAPA_PROFIL
 70
     0
 62
     7
  6
CONTINUOUS
  0
LAYER
  2
SAPA_LIGHT
 70
     1
 62
     1
  6
CONTINUOUS
  0
LAYER
  2
BYGG-013688$0$ARTIKELNUMME
 70
     0
 62
     4
  6
CONTINUOUS
  0
LAYER
  2
BYGG-013692$0$FIX-BLUE
 70
     0
 62
     5
  6
CONTINUOUS
  0
LAYER
  2
SAPA_FOGBAND
 70
     0
 62
     2
  6
CONTINUOUS
  0
LAYER
  2
SAPA_ISOLATOR
 70
     0
 62
     4
  6
CONTINUOUS
  0
LAYER
  2
SAPA_GLAS
 70
     0
 62
     4
  6
CONTINUOUS
  0
ENDTAB
  0
TABLE
  2
STYLE
 70
    42
  0
STYLE
  2
STANDARD
 70
     0
 40
0.0
 41
1.0
 50
0.0
 71
     0
 42
0.2
  3
txt
  4

  0
STYLE
  2
ISO
 70
     0
 40
0.0
 41
1.0
 50
0.0
 71
     0
 42
3.5
  3
txt
  4

  0
STYLE
  2
ANNOTATIVE
 70
     0
 40
0.0
 41
1.0
 50
0.0
 71
     0
 42
0.2
  3
txt
  4

  0
STYLE
  2
BYGG-024116$0$STANDARD
 70
     0
 40
0.0
 41
1.0
 50
0.0
 71
     0
 42
0.2
  3
txt
  4

  0
STYLE
  2
BYGG-024116$0$ISO
 70
     0
 40
0.0
 41
1.0
 50
0.0
 71
     0
 42
3.5
  3
txt
  4

  0
STYLE
  2
BYGG-01473602$0$STANDARD
 70
     0
 40
0.0
 41
1.0
 50
0.0
 71
     0
 42
0.2
  3
txt
  4

  0
STYLE
  2
BYGG-01473602$0$ISO
 70
     0
 40
0.0
 41
1.0
 50
0.0
 71
     0
 42
2.5
  3
isocp3.shx
  4

  0
STYLE
  2
BYGG-024082$0$STANDARD
 70
     0
 40
0.0
 41
1.0
 50
0.0
 71
     0
 42
0.2
  3
txt
  4

  0
STYLE
  2
BYGG-024082$0$ISO
 70
     0
 40
0.0
 41
1.0
 50
0.0
 71
     0
 42
3.5
  3
txt
  4

  0
STYLE
  2
BYGG-014252$0$STANDARD
 70
     0
 40
0.0
 41
1.0
 50
0.0
 71
     0
 42
0.2
  3
txt
  4

  0
STYLE
  2
BYGG-014252$0$ISO
 70
     0
 40
0.0
 41
1.0
 50
0.0
 71
     0
 42
2.5
  3
isocp3.shx
  4

  0
STYLE
  2
BYGG-014014$0$STANDARD
 70
     0
 40
0.0
 41
1.0
 50
0.0
 71
     0
 42
0.2
  3
txt
  4

  0
STYLE
  2
BYGG-024083$0$STANDARD
 70
     0
 40
0.0
 41
1.0
 50
0.0
 71
     0
 42
0.2
  3
txt
  4

  0
STYLE
  2
BYGG-024083$0$ISO
 70
     0
 40
0.0
 41
1.0
 50
0.0
 71
     0
 42
3.5
  3
txt
  4

  0
STYLE
  2
BYGG-021662$0$STANDARD
 70
     0
 40
0.0
 41
1.0
 50
0.0
 71
     0
 42
0.2
  3
txt
  4

  0
STYLE
  2
BYGG-021662$0$ISO
 70
     0
 40
0.0
 41
1.0
 50
0.0
 71
     0
 42
3.5
  3
isocp3.shx
  4

  0
STYLE
  2
BYGG-01482101$0$STANDARD
 70
     0
 40
0.0
 41
1.0
 50
0.0
 71
     0
 42
0.2
  3
txt
  4

  0
STYLE
  2
BYGG-01482101$0$ISO
 70
     0
 40
0.0
 41
1.0
 50
0.0
 71
     0
 42
3.5
  3
isocp3.shx
  4

  0
STYLE
  2
BYGG-021610$0$STANDARD
 70
     0
 40
0.0
 41
1.0
 50
0.0
 71
     0
 42
0.2
  3
txt
  4

  0
STYLE
  2
BYGG-021610$0$ISO
 70
     0
 40
0.0
 41
1.0
 50
0.0
 71
     0
 42
3.5
  3
isocp3.shx
  4

  0
STYLE
  2
BYGG-014357$0$STANDARD
 70
     0
 40
0.0
 41
1.0
 50
0.0
 71
     0
 42
0.2
  3
txt
  4

  0
STYLE
  2
BYGG-014357$0$ISO
 70
     0
 40
0.0
 41
1.0
 50
0.0
 71
     0
 42
3.5
  3
isocp3.shx
  4

  0
STYLE
  2
BYGG-014062$0$STANDARD
 70
     0
 40
0.0
 41
1.0
 50
0.0
 71
     0
 42
0.2
  3
txt
  4

  0
STYLE
  2
BYGG-014062$0$ISO
 70
     0
 40
0.0
 41
1.0
 50
0.0
 71
     0
 42
3.5
  3
isocp3.shx
  4

  0
STYLE
  2
BYGG-024103$0$STANDARD
 70
     0
 40
0.0
 41
1.0
 50
0.0
 71
     0
 42
0.2
  3
txt
  4

  0
STYLE
  2
BYGG-024103$0$ISO
 70
     0
 40
0.0
 41
1.0
 50
0.0
 71
     0
 42
3.5
  3
txt
  4

  0
STYLE
  2
BYGG-014257$0$STANDARD
 70
     0
 40
0.0
 41
1.0
 50
0.0
 71
     0
 42
0.2
  3
txt
  4

  0
STYLE
  2
BYGG-014257$0$ISO
 70
     0
 40
0.0
 41
1.0
 50
0.0
 71
     0
 42
2.5
  3
isocp3.shx
  4

  0
STYLE
  2
BYGG-024123$0$STANDARD
 70
     0
 40
0.0
 41
1.0
 50
0.0
 71
     0
 42
0.2
  3
txt
  4

  0
STYLE
  2
BYGG-024123$0$ISO
 70
     0
 40
0.0
 41
1.0
 50
0.0
 71
     0
 42
3.5
  3
txt
  4

  0
STYLE
  2
BYGG-013688$0$STANDARD
 70
     0
 40
0.0
 41
1.0
 50
0.0
 71
     0
 42
0.2
  3
txt
  4

  0
STYLE
  2
BYGG-013688$0$ISO
 70
     0
 40
0.0
 41
1.0
 50
0.0
 71
     0
 42
8.0
  3
iso
  4

  0
STYLE
  2
BYGG-024139$0$STANDARD
 70
     0
 40
0.0
 41
1.0
 50
0.0
 71
     0
 42
0.2
  3
txt
  4

  0
STYLE
  2
BYGG-024139$0$ISO
 70
     0
 40
0.0
 41
1.0
 50
0.0
 71
     0
 42
3.5
  3
txt
  4

  0
STYLE
  2
BYGG-013692$0$STANDARD
 70
     0
 40
0.0
 41
1.0
 50
0.0
 71
     0
 42
0.2
  3
txt
  4

  0
STYLE
  2
BYGG-013692$0$ISO
 70
     0
 40
0.0
 41
1.0
 50
0.0
 71
     0
 42
2.5
  3
isocp3.shx
  4

  0
STYLE
  2
BYGG-024138$0$STANDARD
 70
     0
 40
0.0
 41
1.0
 50
0.0
 71
     0
 42
0.2
  3
txt
  4

  0
STYLE
  2
BYGG-024138$0$ISO
 70
     0
 40
0.0
 41
1.0
 50
0.0
 71
     0
 42
3.5
  3
txt
  4

  0
STYLE
  2
BYGG-014234$0$STANDARD
 70
     0
 40
0.0
 41
1.0
 50
0.0
 71
     0
 42
0.2
  3
txt
  4

  0
STYLE
  2
BYGG-014234$0$ISO
 70
     0
 40
0.0
 41
1.0
 50
0.0
 71
     0
 42
3.5
  3
isocp3.shx
  4

  0
STYLE
  2
BYGG-021806$0$STANDARD
 70
     0
 40
0.0
 41
1.0
 50
0.0
 71
     0
 42
0.2
  3
txt
  4

  0
STYLE
  2
BYGG-021806$0$ISO
 70
     0
 40
0.0
 41
1.0
 50
0.0
 71
     0
 42
3.5
  3
txt
  4

  0
ENDTAB
  0
TABLE
  2
VIEW
 70
     0
  0
ENDTAB
  0
TABLE
  2
UCS
 70
     0
  0
ENDTAB
  0
TABLE
  2
APPID
 70
    17
  0
APPID
  2
ACAD
 70
     0
  0
APPID
  2
ACAD_DSTYLE_DIMTEXT_FILL
 70
     0
  0
APPID
  2
ACAD_DSTYLE_DIMEXT_LENGTH
 70
     0
  0
APPID
  2
ACAD_DSTYLE_DIMEXT_ENABLED
 70
     0
  0
APPID
  2
ACAD_DSTYLE_DIM_LINETYPE
 70
     0
  0
APPID
  2
ACAD_DSTYLE_DIM_EXT1_LINETYPE
 70
     0
  0
APPID
  2
ACAD_DSTYLE_DIM_EXT2_LINETYPE
 70
     0
  0
APPID
  2
ACAD_DSTYLE_DIMJOGGED_JOGA
 70
     0
  0
APPID
  2
ACAD_DSTYLE_DIMARC_LENGTH_
 70
     0
  0
APPID
  2
ACAD_PSEXT
 70
     0
  0
APPID
  2
ACAD_MLEADERVER
 70
     0
  0
APPID
  2
AME_SOL
 70
     0
  0
APPID
  2
AMG_ARCHIVE11
 70
     0
  0
APPID
  2
DCO15
 70
     0
  0
APPID
  2
ACAD_EXEMPT_FROM_CAD_STANDARDS
 70
     0
  0
APPID
  2
ACADANNOTATIVE
 70
     0
  0
APPID
  2
ACAECLAYERSTANDARD
 70
     0
  0
ENDTAB
  0
TABLE
  2
DIMSTYLE
 70
    43
  0
DIMSTYLE
  2
STANDARD
 70
     0
  3

  4

  5

  6

  7

 40
1.0
 41
0.18
 42
0.0625
 43
0.38
 44
0.18
 45
0.0
 46
0.0
 47
0.0
 48
0.0
140
0.18
141
0.09
142
0.0
143
25.399999999999999
144
1.0
145
0.0
146
1.0
147
0.09
 71
     0
 72
     0
 73
     1
 74
     1
 75
     0
 76
     0
 77
     0
 78
     0
170
     0
171
     2
172
     0
173
     0
174
     0
175
     0
176
     0
177
     0
178
     0
  0
DIMSTYLE
  2
MASKIN
 70
     0
  3

  4

  5

  6

  7

 40
0.0
 41
3.0
 42
1.5
 43
10.0
 44
1.5
 45
0.0
 46
0.0
 47
0.0
 48
0.0
140
3.0
141
-5.0
142
0.0
143
25.399999999999999
144
-1.0
145
0.0
146
1.0
147
1.0
 71
     0
 72
     0
 73
     0
 74
     0
 75
     0
 76
     0
 77
     1
 78
     8
170
     0
171
     0
172
     1
173
     0
174
     0
175
     0
176
   256
177
   256
178
     2
  0
DIMSTYLE
  2
ANNOTATIVE
 70
     0
  3

  4

  5

  6

  7

 40
1.0
 41
0.18
 42
0.0625
 43
0.38
 44
0.18
 45
0.0
 46
0.0
 47
0.0
 48
0.0
140
0.18
141
0.09
142
0.0
143
25.399999999999999
144
1.0
145
0.0
146
1.0
147
0.09
 71
     0
 72
     0
 73
     1
 74
     1
 75
     0
 76
     0
 77
     0
 78
     0
170
     0
171
     2
172
     0
173
     0
174
     0
175
     0
176
     0
177
     0
178
     0
  0
DIMSTYLE
  2
BYGG-024116$0$STANDARD
 70
     0
  3

  4

  5

  6

  7

 40
1.0
 41
0.18
 42
0.0625
 43
0.38
 44
0.18
 45
0.0
 46
0.0
 47
0.0
 48
0.0
140
0.18
141
0.09
142
0.0
143
25.399999999999999
144
1.0
145
0.0
146
1.0
147
0.09
 71
     0
 72
     0
 73
     1
 74
     1
 75
     0
 76
     0
 77
     0
 78
     0
170
     0
171
     2
172
     0
173
     0
174
     0
175
     0
176
     0
177
     0
178
     0
  0
DIMSTYLE
  2
BYGG-024116$0$MASKIN
 70
     0
  3

  4

  5

  6

  7

 40
0.0
 41
3.0
 42
1.5
 43
10.0
 44
1.5
 45
0.0
 46
0.0
 47
0.0
 48
0.0
140
3.0
141
-5.0
142
0.0
143
25.399999999999999
144
-1.0
145
0.0
146
1.0
147
1.0
 71
     0
 72
     0
 73
     0
 74
     0
 75
     0
 76
     0
 77
     1
 78
     8
170
     0
171
     0
172
     1
173
     0
174
     0
175
     0
176
   256
177
   256
178
     2
  0
DIMSTYLE
  2
BYGG-01473602$0$STANDARD
 70
     0
  3

  4

  5

  6

  7

 40
1.0
 41
0.18
 42
0.0625
 43
0.38
 44
0.18
 45
0.0
 46
0.0
 47
0.0
 48
0.0
140
0.18
141
0.09
142
0.0
143
25.399999999999999
144
1.0
145
0.0
146
1.0
147
0.09
 71
     0
 72
     0
 73
     1
 74
     1
 75
     0
 76
     0
 77
     0
 78
     0
170
     0
171
     2
172
     0
173
     0
174
     0
175
     0
176
     0
177
     0
178
     0
  0
DIMSTYLE
  2
BYGG-01473602$0$MASKIN
 70
     0
  3

  4

  5

  6

  7

 40
0.0
 41
3.0
 42
1.5
 43
10.0
 44
1.5
 45
0.0
 46
0.0
 47
0.0
 48
0.0
140
3.0
141
-5.0
142
0.0
143
25.399999999999999
144
-1.0
145
0.0
146
1.0
147
1.0
 71
     0
 72
     0
 73
     0
 74
     1
 75
     0
 76
     0
 77
     1
 78
     8
170
     0
171
     0
172
     1
173
     0
174
     0
175
     0
176
   256
177
   256
178
     2
  0
DIMSTYLE
  2
BYGG-024082$0$STANDARD
 70
     0
  3

  4

  5

  6

  7

 40
1.0
 41
0.18
 42
0.0625
 43
0.38
 44
0.18
 45
0.0
 46
0.0
 47
0.0
 48
0.0
140
0.18
141
0.09
142
0.0
143
25.399999999999999
144
1.0
145
0.0
146
1.0
147
0.09
 71
     0
 72
     0
 73
     1
 74
     1
 75
     0
 76
     0
 77
     0
 78
     0
170
     0
171
     2
172
     0
173
     0
174
     0
175
     0
176
     0
177
     0
178
     0
  0
DIMSTYLE
  2
BYGG-024082$0$MASKIN
 70
     0
  3

  4

  5

  6

  7

 40
0.0
 41
3.0
 42
1.5
 43
10.0
 44
1.5
 45
0.0
 46
0.0
 47
0.0
 48
0.0
140
3.0
141
-5.0
142
0.0
143
25.399999999999999
144
-1.0
145
0.0
146
1.0
147
1.0
 71
     0
 72
     0
 73
     0
 74
     0
 75
     0
 76
     0
 77
     1
 78
     8
170
     0
171
     0
172
     1
173
     0
174
     0
175
     0
176
   256
177
   256
178
     2
  0
DIMSTYLE
  2
BYGG-014252$0$STANDARD
 70
     0
  3

  4

  5

  6

  7

 40
1.0
 41
0.18
 42
0.0625
 43
0.38
 44
0.18
 45
0.0
 46
0.0
 47
0.0
 48
0.0
140
0.18
141
0.09
142
0.0
143
25.399999999999999
144
1.0
145
0.0
146
1.0
147
0.09
 71
     0
 72
     0
 73
     1
 74
     1
 75
     0
 76
     0
 77
     0
 78
     0
170
     0
171
     2
172
     0
173
     0
174
     0
175
     0
176
     0
177
     0
178
     0
  0
DIMSTYLE
  2
BYGG-014252$0$MASKIN
 70
     0
  3

  4

  5

  6

  7

 40
0.0
 41
3.0
 42
1.5
 43
10.0
 44
1.5
 45
0.0
 46
0.0
 47
0.0
 48
0.0
140
3.0
141
-5.0
142
0.0
143
25.399999999999999
144
-1.0
145
0.0
146
1.0
147
1.0
 71
     0
 72
     0
 73
     0
 74
     1
 75
     0
 76
     0
 77
     1
 78
     8
170
     0
171
     0
172
     1
173
     0
174
     0
175
     0
176
   256
177
   256
178
     2
  0
DIMSTYLE
  2
BYGG-014014$0$STANDARD
 70
     0
  3

  4

  5

  6

  7

 40
1.0
 41
0.18
 42
0.0625
 43
0.38
 44
0.18
 45
0.0
 46
0.0
 47
0.0
 48
0.0
140
0.18
141
0.09
142
0.0
143
25.399999999999999
144
1.0
145
0.0
146
1.0
147
0.09
 71
     0
 72
     0
 73
     1
 74
     1
 75
     0
 76
     0
 77
     0
 78
     0
170
     0
171
     2
172
     0
173
     0
174
     0
175
     0
176
     0
177
     0
178
     0
  0
DIMSTYLE
  2
BYGG-024083$0$STANDARD
 70
     0
  3

  4

  5

  6

  7

 40
1.0
 41
0.18
 42
0.0625
 43
0.38
 44
0.18
 45
0.0
 46
0.0
 47
0.0
 48
0.0
140
0.18
141
0.09
142
0.0
143
25.399999999999999
144
1.0
145
0.0
146
1.0
147
0.09
 71
     0
 72
     0
 73
     1
 74
     1
 75
     0
 76
     0
 77
     0
 78
     0
170
     0
171
     2
172
     0
173
     0
174
     0
175
     0
176
     0
177
     0
178
     0
  0
DIMSTYLE
  2
BYGG-024083$0$MASKIN
 70
     0
  3

  4

  5

  6

  7

 40
0.0
 41
3.0
 42
1.5
 43
10.0
 44
1.5
 45
0.0
 46
0.0
 47
0.0
 48
0.0
140
3.0
141
-5.0
142
0.0
143
25.399999999999999
144
-1.0
145
0.0
146
1.0
147
1.0
 71
     0
 72
     0
 73
     0
 74
     0
 75
     0
 76
     0
 77
     1
 78
     8
170
     0
171
     0
172
     1
173
     0
174
     0
175
     0
176
   256
177
   256
178
     2
  0
DIMSTYLE
  2
BYGG-021662$0$MASKIN
 70
     0
  3

  4

  5

  6

  7

 40
0.0
 41
3.0
 42
1.5
 43
10.0
 44
1.5
 45
0.0
 46
0.0
 47
0.0
 48
0.0
140
3.0
141
-5.0
142
0.0
143
25.399999999999999
144
-1.0
145
0.0
146
1.0
147
1.0
 71
     0
 72
     0
 73
     0
 74
     0
 75
     0
 76
     0
 77
     1
 78
     8
170
     0
171
     0
172
     1
173
     0
174
     0
175
     0
176
   256
177
   256
178
   256
  0
DIMSTYLE
  2
BYGG-01482101$0$STANDARD
 70
     0
  3

  4

  5

  6

  7

 40
1.0
 41
0.18
 42
0.0625
 43
0.38
 44
0.18
 45
0.0
 46
0.0
 47
0.0
 48
0.0
140
0.18
141
0.09
142
0.0
143
25.399999999999999
144
1.0
145
0.0
146
1.0
147
0.09
 71
     0
 72
     0
 73
     1
 74
     1
 75
     0
 76
     0
 77
     0
 78
     0
170
     0
171
     2
172
     0
173
     0
174
     0
175
     0
176
     0
177
     0
178
     0
  0
DIMSTYLE
  2
BYGG-01482101$0$MASKIN
 70
     0
  3

  4

  5

  6

  7

 40
0.0
 41
3.0
 42
1.5
 43
10.0
 44
1.5
 45
0.0
 46
0.0
 47
0.0
 48
0.0
140
3.0
141
-5.0
142
0.0
143
25.399999999999999
144
-1.0
145
0.0
146
1.0
147
1.0
 71
     0
 72
     0
 73
     0
 74
     1
 75
     0
 76
     0
 77
     1
 78
     8
170
     0
171
     0
172
     1
173
     0
174
     0
175
     0
176
   256
177
   256
178
     2
  0
DIMSTYLE
  2
BYGG-021610$0$MASKIN
 70
     0
  3

  4

  5

  6

  7

 40
0.0
 41
3.0
 42
1.5
 43
10.0
 44
1.5
 45
0.0
 46
0.0
 47
0.0
 48
0.0
140
3.0
141
-5.0
142
0.0
143
25.399999999999999
144
-1.0
145
0.0
146
1.0
147
1.0
 71
     0
 72
     0
 73
     0
 74
     0
 75
     0
 76
     0
 77
     1
 78
     8
170
     0
171
     0
172
     1
173
     0
174
     0
175
     0
176
   256
177
   256
178
   256
  0
DIMSTYLE
  2
BYGG-014357$0$MASKIN
 70
     0
  3

  4

  5

  6

  7

 40
0.0
 41
3.0
 42
1.5
 43
10.0
 44
1.5
 45
0.0
 46
0.0
 47
0.0
 48
0.0
140
3.0
141
-5.0
142
0.0
143
25.399999999999999
144
-1.0
145
0.0
146
1.0
147
1.0
 71
     0
 72
     0
 73
     0
 74
     0
 75
     0
 76
     0
 77
     1
 78
     8
170
     0
171
     0
172
     1
173
     0
174
     0
175
     0
176
   256
177
   256
178
   256
  0
DIMSTYLE
  2
BYGG-014357$0$MASKIN1
 70
     0
  3

  4

  5

  6

  7

 40
1.0
 41
3.0
 42
1.5
 43
10.0
 44
1.5
 45
0.0
 46
0.0
 47
0.0
 48
0.0
140
3.0
141
-5.0
142
0.0
143
25.399999999999999
144
1.0
145
0.0
146
1.0
147
0.9
 71
     0
 72
     0
 73
     0
 74
     0
 75
     0
 76
     0
 77
     1
 78
     8
170
     0
171
     0
172
     1
173
     0
174
     0
175
     0
176
   256
177
   256
178
   256
  0
DIMSTYLE
  2
BYGG-014357$0$MASKIN2
 70
     0
  3

  4

  5

  6

  7

 40
1.0
 41
3.0
 42
1.5
 43
10.0
 44
1.5
 45
0.0
 46
0.0
 47
0.0
 48
0.0
140
3.0
141
-5.0
142
0.0
143
25.399999999999999
144
1.0
145
0.0
146
1.0
147
0.9
 71
     0
 72
     0
 73
     0
 74
     0
 75
     0
 76
     0
 77
     1
 78
     8
170
     0
171
     0
172
     1
173
     0
174
     0
175
     0
176
   256
177
   256
178
   256
  0
DIMSTYLE
  2
BYGG-014357$0$MASKIN3
 70
     0
  3

  4

  5

  6

  7

 40
1.0
 41
3.0
 42
1.5
 43
10.0
 44
1.5
 45
0.0
 46
0.0
 47
0.0
 48
0.0
140
3.0
141
-5.0
142
0.0
143
25.399999999999999
144
1.0
145
0.0
146
1.0
147
0.9
 71
     0
 72
     0
 73
     0
 74
     0
 75
     0
 76
     0
 77
     1
 78
     8
170
     0
171
     0
172
     1
173
     0
174
     0
175
     0
176
   256
177
   256
178
   256
  0
DIMSTYLE
  2
BYGG-014357$0$DMST_1
 70
     0
  3

  4

  5

  6

  7

 40
1.0
 41
0.7000000000000002
 42
0.0
 43
7.0
 44
0.4
 45
0.0
 46
0.0
 47
0.15
 48
0.15
140
0.7000000000000002
141
0.0
142
0.0
143
25.399999999999999
144
1.0
145
0.0
146
0.7
147
0.09
 71
     1
 72
     0
 73
     0
 74
     0
 75
     0
 76
     0
 77
     1
 78
     9
170
     0
171
     2
172
     0
173
     0
174
     0
175
     0
176
     1
177
     1
178
     2
  0
DIMSTYLE
  2
BYGG-014062$0$MASKIN
 70
     0
  3

  4

  5

  6

  7

 40
0.0
 41
3.0
 42
1.5
 43
10.0
 44
1.5
 45
0.0
 46
0.0
 47
0.0
 48
0.0
140
3.0
141
-5.0
142
0.0
143
25.399999999999999
144
-1.0
145
0.0
146
1.0
147
1.0
 71
     0
 72
     0
 73
     0
 74
     0
 75
     0
 76
     0
 77
     1
 78
     8
170
     0
171
     0
172
     1
173
     0
174
     0
175
     0
176
   256
177
   256
178
   256
  0
DIMSTYLE
  2
BYGG-014062$0$STANDARD
 70
     0
  3

  4

  5

  6

  7

 40
1.0
 41
0.18
 42
0.0625
 43
0.38
 44
0.18
 45
0.0
 46
0.0
 47
0.0
 48
0.0
140
0.18
141
0.09
142
0.0
143
25.399999999999999
144
1.0
145
0.0
146
1.0
147
0.09
 71
     0
 72
     0
 73
     1
 74
     1
 75
     0
 76
     0
 77
     0
 78
     0
170
     0
171
     2
172
     0
173
     0
174
     0
175
     0
176
     0
177
     0
178
     0
  0
DIMSTYLE
  2
BYGG-024103$0$STANDARD
 70
     0
  3

  4

  5

  6

  7

 40
1.0
 41
0.18
 42
0.0625
 43
0.38
 44
0.18
 45
0.0
 46
0.0
 47
0.0
 48
0.0
140
0.18
141
0.09
142
0.0
143
25.399999999999999
144
1.0
145
0.0
146
1.0
147
0.09
 71
     0
 72
     0
 73
     1
 74
     1
 75
     0
 76
     0
 77
     0
 78
     0
170
     0
171
     2
172
     0
173
     0
174
     0
175
     0
176
     0
177
     0
178
     0
  0
DIMSTYLE
  2
BYGG-024103$0$MASKIN
 70
     0
  3

  4

  5

  6

  7

 40
0.0
 41
3.0
 42
1.5
 43
10.0
 44
1.5
 45
0.0
 46
0.0
 47
0.0
 48
0.0
140
3.0
141
-5.0
142
0.0
143
25.399999999999999
144
-1.0
145
0.0
146
1.0
147
1.0
 71
     0
 72
     0
 73
     0
 74
     0
 75
     0
 76
     0
 77
     1
 78
     8
170
     0
171
     0
172
     1
173
     0
174
     0
175
     0
176
   256
177
   256
178
     2
  0
DIMSTYLE
  2
BYGG-014257$0$STANDARD
 70
     0
  3

  4

  5

  6

  7

 40
1.0
 41
0.18
 42
0.0625
 43
0.38
 44
0.18
 45
0.0
 46
0.0
 47
0.0
 48
0.0
140
0.18
141
0.09
142
0.0
143
25.399999999999999
144
1.0
145
0.0
146
1.0
147
0.09
 71
     0
 72
     0
 73
     1
 74
     1
 75
     0
 76
     0
 77
     0
 78
     0
170
     0
171
     2
172
     0
173
     0
174
     0
175
     0
176
     0
177
     0
178
     0
  0
DIMSTYLE
  2
BYGG-014257$0$MASKIN
 70
     0
  3

  4

  5

  6

  7

 40
0.0
 41
3.0
 42
1.5
 43
10.0
 44
1.5
 45
0.0
 46
0.0
 47
0.0
 48
0.0
140
3.0
141
-5.0
142
0.0
143
25.399999999999999
144
-1.0
145
0.0
146
1.0
147
1.0
 71
     0
 72
     0
 73
     0
 74
     1
 75
     0
 76
     0
 77
     1
 78
     8
170
     0
171
     0
172
     1
173
     0
174
     0
175
     0
176
   256
177
   256
178
     2
  0
DIMSTYLE
  2
BYGG-024123$0$STANDARD
 70
     0
  3

  4

  5

  6

  7

 40
1.0
 41
0.18
 42
0.0625
 43
0.38
 44
0.18
 45
0.0
 46
0.0
 47
0.0
 48
0.0
140
0.18
141
0.09
142
0.0
143
25.399999999999999
144
1.0
145
0.0
146
1.0
147
0.09
 71
     0
 72
     0
 73
     1
 74
     1
 75
     0
 76
     0
 77
     0
 78
     0
170
     0
171
     2
172
     0
173
     0
174
     0
175
     0
176
     0
177
     0
178
     0
  0
DIMSTYLE
  2
BYGG-024123$0$MASKIN
 70
     0
  3

  4

  5

  6

  7

 40
0.0
 41
3.0
 42
1.5
 43
10.0
 44
1.5
 45
0.0
 46
0.0
 47
0.0
 48
0.0
140
3.0
141
-5.0
142
0.0
143
25.399999999999999
144
-1.0
145
0.0
146
1.0
147
1.0
 71
     0
 72
     0
 73
     0
 74
     0
 75
     0
 76
     0
 77
     1
 78
     8
170
     0
171
     0
172
     1
173
     0
174
     0
175
     0
176
   256
177
   256
178
     2
  0
DIMSTYLE
  2
BYGG-013688$0$STANDARD
 70
     0
  3

  4

  5

  6

  7

 40
1.0
 41
0.18
 42
0.0625
 43
0.38
 44
0.18
 45
0.0
 46
0.0
 47
0.0
 48
0.0
140
0.18
141
0.09
142
0.0
143
25.399999999999999
144
1.0
145
0.0
146
1.0
147
0.09
 71
     0
 72
     0
 73
     1
 74
     1
 75
     0
 76
     0
 77
     0
 78
     0
170
     0
171
     2
172
     0
173
     0
174
     0
175
     0
176
     0
177
     0
178
     0
  0
DIMSTYLE
  2
BYGG-013688$0$MASKIN
 70
     0
  3

  4

  5

  6

  7

 40
0.0
 41
3.0
 42
1.5
 43
10.0
 44
1.5
 45
0.0
 46
0.0
 47
0.0
 48
0.0
140
3.0
141
-5.0
142
0.0
143
25.399999999999999
144
-1.0
145
0.0
146
1.0
147
1.0
 71
     0
 72
     0
 73
     0
 74
     1
 75
     0
 76
     0
 77
     1
 78
     8
170
     0
171
     0
172
     1
173
     0
174
     0
175
     0
176
   256
177
   256
178
     2
  0
DIMSTYLE
  2
BYGG-024139$0$STANDARD
 70
     0
  3

  4

  5

  6

  7

 40
1.0
 41
0.18
 42
0.0625
 43
0.38
 44
0.18
 45
0.0
 46
0.0
 47
0.0
 48
0.0
140
0.18
141
0.09
142
0.0
143
25.399999999999999
144
1.0
145
0.0
146
1.0
147
0.09
 71
     0
 72
     0
 73
     1
 74
     1
 75
     0
 76
     0
 77
     0
 78
     0
170
     0
171
     2
172
     0
173
     0
174
     0
175
     0
176
     0
177
     0
178
     0
  0
DIMSTYLE
  2
BYGG-024139$0$MASKIN
 70
     0
  3

  4

  5

  6

  7

 40
0.0
 41
3.0
 42
1.5
 43
10.0
 44
1.5
 45
0.0
 46
0.0
 47
0.0
 48
0.0
140
3.0
141
-5.0
142
0.0
143
25.399999999999999
144
-1.0
145
0.0
146
1.0
147
1.0
 71
     0
 72
     0
 73
     0
 74
     0
 75
     0
 76
     0
 77
     1
 78
     8
170
     0
171
     0
172
     1
173
     0
174
     0
175
     0
176
   256
177
   256
178
     2
  0
DIMSTYLE
  2
BYGG-013692$0$STANDARD
 70
     0
  3

  4

  5

  6

  7

 40
1.0
 41
0.18
 42
0.0625
 43
0.38
 44
0.18
 45
0.0
 46
0.0
 47
0.0
 48
0.0
140
0.18
141
0.09
142
0.0
143
25.399999999999999
144
1.0
145
0.0
146
1.0
147
0.09
 71
     0
 72
     0
 73
     1
 74
     1
 75
     0
 76
     0
 77
     0
 78
     0
170
     0
171
     2
172
     0
173
     0
174
     0
175
     0
176
     0
177
     0
178
     0
  0
DIMSTYLE
  2
BYGG-013692$0$MASKIN
 70
     0
  3

  4

  5

  6

  7

 40
0.0
 41
3.0
 42
1.5
 43
10.0
 44
1.5
 45
0.0
 46
0.0
 47
0.0
 48
0.0
140
3.0
141
-5.0
142
0.0
143
25.399999999999999
144
-1.0
145
0.0
146
1.0
147
1.0
 71
     0
 72
     0
 73
     0
 74
     1
 75
     0
 76
     0
 77
     1
 78
     8
170
     0
171
     0
172
     1
173
     0
174
     0
175
     0
176
   256
177
   256
178
     2
  0
DIMSTYLE
  2
BYGG-024138$0$STANDARD
 70
     0
  3

  4

  5

  6

  7

 40
1.0
 41
0.18
 42
0.0625
 43
0.38
 44
0.18
 45
0.0
 46
0.0
 47
0.0
 48
0.0
140
0.18
141
0.09
142
0.0
143
25.399999999999999
144
1.0
145
0.0
146
1.0
147
0.09
 71
     0
 72
     0
 73
     1
 74
     1
 75
     0
 76
     0
 77
     0
 78
     0
170
     0
171
     2
172
     0
173
     0
174
     0
175
     0
176
     0
177
     0
178
     0
  0
DIMSTYLE
  2
BYGG-024138$0$MASKIN
 70
     0
  3

  4

  5

  6

  7

 40
0.0
 41
3.0
 42
1.5
 43
10.0
 44
1.5
 45
0.0
 46
0.0
 47
0.0
 48
0.0
140
3.0
141
-5.0
142
0.0
143
25.399999999999999
144
-1.0
145
0.0
146
1.0
147
1.0
 71
     0
 72
     0
 73
     0
 74
     0
 75
     0
 76
     0
 77
     1
 78
     8
170
     0
171
     0
172
     1
173
     0
174
     0
175
     0
176
   256
177
   256
178
     2
  0
DIMSTYLE
  2
BYGG-014234$0$STANDARD
 70
     0
  3

  4

  5

  6

  7

 40
1.0
 41
0.18
 42
0.0625
 43
0.38
 44
0.18
 45
0.0
 46
0.0
 47
0.0
 48
0.0
140
0.18
141
0.09
142
0.0
143
25.399999999999999
144
1.0
145
0.0
146
1.0
147
0.09
 71
     0
 72
     0
 73
     1
 74
     1
 75
     0
 76
     0
 77
     0
 78
     0
170
     0
171
     2
172
     0
173
     0
174
     0
175
     0
176
     0
177
     0
178
     0
  0
DIMSTYLE
  2
BYGG-014234$0$MASKIN
 70
     0
  3

  4

  5

  6

  7

 40
0.0
 41
3.0
 42
1.5
 43
10.0
 44
1.5
 45
0.0
 46
0.0
 47
0.0
 48
0.0
140
3.0
141
-5.0
142
0.0
143
25.399999999999999
144
-1.0
145
0.0
146
1.0
147
1.0
 71
     0
 72
     0
 73
     0
 74
     0
 75
     0
 76
     0
 77
     1
 78
     8
170
     0
171
     0
172
     1
173
     0
174
     0
175
     0
176
   256
177
   256
178
   256
  0
DIMSTYLE
  2
BYGG-021806$0$STANDARD
 70
     0
  3

  4

  5

  6

  7

 40
1.0
 41
0.18
 42
0.0625
 43
0.38
 44
0.18
 45
0.0
 46
0.0
 47
0.0
 48
0.0
140
0.18
141
0.09
142
0.0
143
25.399999999999999
144
1.0
145
0.0
146
1.0
147
0.09
 71
     0
 72
     0
 73
     1
 74
     1
 75
     0
 76
     0
 77
     0
 78
     0
170
     0
171
     2
172
     0
173
     0
174
     0
175
     0
176
     0
177
     0
178
     0
  0
DIMSTYLE
  2
BYGG-021806$0$MASKIN
 70
     0
  3

  4

  5

  6

  7

 40
0.0
 41
3.0
 42
1.5
 43
10.0
 44
1.5
 45
0.0
 46
0.0
 47
0.0
 48
0.0
140
3.0
141
-5.0
142
0.0
143
25.399999999999999
144
-1.0
145
0.0
146
1.0
147
1.0
 71
     0
 72
     0
 73
     0
 74
     0
 75
     0
 76
     0
 77
     1
 78
     8
170
     0
171
     0
172
     1
173
     0
174
     0
175
     0
176
   256
177
   256
178
     2
  0
ENDTAB
  0
ENDSEC
  0
SECTION
  2
BLOCKS
  0
BLOCK
  8
0
  2
$MODEL_SPACE
 70
     0
 10
0.0
 20
0.0
 30
0.0
  3
$MODEL_SPACE
  1

  0
ENDBLK
  5
37
  8
0
  0
BLOCK
 67
     1
  8
0
  2
$PAPER_SPACE
 70
     0
 10
0.0
 20
0.0
 30
0.0
  3
$PAPER_SPACE
  1

  0
ENDBLK
  5
35
 67
     1
  8
0
  0
BLOCK
  8
0
  2
BYGG-013688$0$00509-TXT
 70
     0
 10
0.0
 20
0.0
 30
0.0
  3
BYGG-013688$0$00509-TXT
  1

  0
TEXT
  5
BDE
  8
BYGG-013688$0$ARTIKELNUMME
 10
0.0
 20
0.0
 30
0.0
 40
3.5
  1
00509
  7
BYGG-013688$0$ISO
  0
ENDBLK
  5
BE0
  8
0
  0
BLOCK
  8
0
  2
BYGG-013692$0$01041-G
 70
     0
 10
0.0
 20
0.0
 30
0.0
  3
BYGG-013692$0$01041-G
  1

  0
LINE
  5
C2E
  8
BYGG-013692$0$FIX-BLUE
 10
0.0
 20
5.0
 30
0.0
 11
0.0
 21
-5.0
 31
0.0
  0
LINE
  5
C2F
  8
BYGG-013692$0$FIX-BLUE
 10
-5.0
 20
0.0
 30
0.0
 11
5.0
 21
0.0
 31
0.0
  0
POLYLINE
  5
C30
  8
0
 66
     1
 10
0.0
 20
0.0
 30
0.0
 70
     1
  0
VERTEX
  5
173C
  8
0
 10
1.0
 20
-14.0
 30
0.0
  0
VERTEX
  5
173D
  8
0
 10
7.0
 20
-14.0
 30
0.0
  0
VERTEX
  5
173E
  8
0
 10
7.0
 20
-29.0
 30
0.0
  0
VERTEX
  5
173F
  8
0
 10
6.0
 20
-29.0
 30
0.0
  0
VERTEX
  5
1740
  8
0
 10
6.0
 20
-15.0
 30
0.0
  0
VERTEX
  5
1741
  8
0
 10
0.0
 20
-15.0
 30
0.0
  0
VERTEX
  5
1742
  8
0
 10
0.0
 20
0.0
 30
0.0
  0
VERTEX
  5
1743
  8
0
 10
1.0
 20
0.0
 30
0.0
  0
SEQEND
  5
1744
  8
0
  0
ENDBLK
  5
C31
  8
0
  0
BLOCK
  8
0
  2
*U67
 70
     1
 10
0.0
 20
0.0
 30
0.0
  3
*U67
  1

  0
TEXT
  5
1140
  8
SAPA_ARTIKELNR
 10
-4.219769807473372
 20
190.3372156525173
 30
0.0
 40
3.5
  1
42144
 50
19.999999999999979
  7
ISO
  0
ENDBLK
  5
1142
  8
0
  0
BLOCK
  8
0
  2
*U68
 70
     1
 10
0.0
 20
0.0
 30
0.0
  3
*U68
  1

  0
TEXT
  5
1144
  8
SAPA_ARTIKELNR
 10
-92.645117830377657
 20
32.925278003537031
 30
0.0
 40
3.5
  1
00509
  7
ISO
  0
ENDBLK
  5
1146
  8
0
  0
BLOCK
  8
0
  2
*U69
 70
     1
 10
0.0
 20
0.0
 30
0.0
  3
*U69
  1

  0
TEXT
  5
115A
  8
SAPA_ARTIKELNR
 10
29.91964350197749
 20
95.525891756266205
 30
0.0
 40
3.5
  1
68291
 50
19.999999999999979
  7
ISO
  0
ENDBLK
  5
115C
  8
0
  0
BLOCK
  8
0
  2
*X70
 70
     1
 10
0.0
 20
0.0
 30
0.0
  3
*X70
  1

  0
LINE
  5
1168
  8
0
 62
     0
 10
14.93382067612449
 20
83.808087488252113
 30
0.0
 11
15.23065663441789
 21
83.669670607684125
 31
0.0
  0
LINE
  5
1169
  8
0
 62
     0
 10
14.54989211542083
 20
84.862922539469153
 30
0.0
 11
16.285491685634909
 21
84.053599168387805
 31
0.0
  0
LINE
  5
116A
  8
0
 62
     0
 10
15.41775759068469
 20
85.334036445281754
 30
0.0
 11
17.340326736851932
 21
84.437527729091457
 31
0.0
  0
LINE
  5
116B
  8
0
 62
     0
 10
16.472592641901709
 20
85.717965005985434
 30
0.0
 11
18.39516178806895
 21
84.821456289795123
 31
0.0
  0
LINE
  5
116C
  8
0
 62
     0
 10
17.527427693118739
 20
86.101893566689071
 30
0.0
 11
19.449996839285969
 21
85.205384850498774
 31
0.0
  0
LINE
  5
116D
  8
0
 62
     0
 10
18.582262744335761
 20
86.485822127392737
 30
0.0
 11
20.504831890502999
 21
85.58931341120244
 31
0.0
  0
LINE
  5
116E
  8
0
 62
     0
 10
19.637097795552769
 20
86.869750688096417
 30
0.0
 11
21.559666941720021
 21
85.973241971906106
 31
0.0
  0
LINE
  5
116F
  8
0
 62
     0
 10
20.691932846769799
 20
87.253679248800069
 30
0.0
 11
22.61450199293704
 21
86.357170532609771
 31
0.0
  0
LINE
  5
1170
  8
0
 62
     0
 10
21.746767897986821
 20
87.63760780950372
 30
0.0
 11
23.669337044154052
 21
86.741099093313423
 31
0.0
  0
LINE
  5
1171
  8
0
 62
     0
 10
22.80160294920384
 20
88.021536370207386
 30
0.0
 11
24.724172095371081
 21
87.125027654017074
 31
0.0
  0
LINE
  5
1172
  8
0
 62
     0
 10
23.856438000420869
 20
88.405464930911023
 30
0.0
 11
25.7790071465881
 21
87.508956214720726
 31
0.0
  0
LINE
  5
1173
  8
0
 62
     0
 10
24.911273051637881
 20
88.789393491614703
 30
0.0
 11
26.833842197805119
 21
87.892884775424406
 31
0.0
  0
LINE
  5
1174
  8
0
 62
     0
 10
25.966108102854911
 20
89.173322052318355
 30
0.0
 11
27.888677249022141
 21
88.276813336128058
 31
0.0
  0
LINE
  5
1175
  8
0
 62
     0
 10
27.020943154071929
 20
89.557250613022035
 30
0.0
 11
28.94351230023916
 21
88.660741896831723
 31
0.0
  0
LINE
  5
1176
  8
0
 62
     0
 10
28.075778205288952
 20
89.941179173725686
 30
0.0
 11
29.998347351456179
 21
89.044670457535389
 31
0.0
  0
LINE
  5
1177
  8
0
 62
     0
 10
29.130613256505971
 20
90.325107734429338
 30
0.0
 11
31.053182402673201
 21
89.428599018239055
 31
0.0
  0
LINE
  5
1178
  8
0
 62
     0
 10
30.185448307722989
 20
90.709036295133004
 30
0.0
 11
32.10801745389022
 21
89.812527578942735
 31
0.0
  0
LINE
  5
1179
  8
0
 62
     0
 10
31.240283358940012
 20
91.092964855836684
 30
0.0
 11
32.41448659898996
 21
90.545424892770967
 31
0.0
  0
LINE
  5
117A
  8
0
 62
     0
 10
15.324108676706709
 20
85.299951028122408
 30
0.0
 11
14.79995102812094
 21
84.175891323292205
 31
0.0
  0
LINE
  5
117B
  8
0
 62
     0
 10
16.37894372792373
 20
85.683879588826073
 30
0.0
 11
15.48243501173344
 21
83.761310442658839
 31
0.0
  0
LINE
  5
117C
  8
0
 62
     0
 10
17.433778779140759
 20
86.067808149529739
 30
0.0
 11
16.537270062950451
 21
84.145239003362505
 31
0.0
  0
LINE
  5
117D
  8
0
 62
     0
 10
18.488613830357771
 20
86.451736710233391
 30
0.0
 11
17.59210511416747
 21
84.529167564066157
 31
0.0
  0
LINE
  5
117E
  8
0
 62
     0
 10
19.5434488815748
 20
86.835665270937085
 30
0.0
 11
18.6469401653845
 21
84.913096124769837
 31
0.0
  0
LINE
  5
117F
  8
0
 62
     0
 10
20.598283932791819
 20
87.219593831640722
 30
0.0
 11
19.701775216601519
 21
85.297024685473474
 31
0.0
  0
LINE
  5
1180
  8
0
 62
     0
 10
21.653118984008842
 20
87.603522392344388
 30
0.0
 11
20.756610267818541
 21
85.680953246177154
 31
0.0
  0
LINE
  5
1181
  8
0
 62
     0
 10
22.70795403522586
 20
87.98745095304804
 30
0.0
 11
21.81144531903556
 21
86.064881806880805
 31
0.0
  0
LINE
  5
1182
  8
0
 62
     0
 10
23.762789086442879
 20
88.371379513751691
 30
0.0
 11
22.866280370252589
 21
86.448810367584485
 31
0.0
  0
LINE
  5
1183
  8
0
 62
     0
 10
24.817624137659902
 20
88.755308074455357
 30
0.0
 11
23.921115421469601
 21
86.832738928288137
 31
0.0
  0
LINE
  5
1184
  8
0
 62
     0
 10
25.87245918887692
 20
89.139236635159037
 30
0.0
 11
24.97595047268663
 21
87.216667488991789
 31
0.0
  0
LINE
  5
1185
  8
0
 62
     0
 10
26.92729424009395
 20
89.523165195862674
 30
0.0
 11
26.030785523903649
 21
87.600596049695454
 31
0.0
  0
LINE
  5
1186
  8
0
 62
     0
 10
27.982129291310962
 20
89.907093756566354
 30
0.0
 11
27.085620575120679
 21
87.984524610399134
 31
0.0
  0
LINE
  5
1187
  8
0
 62
     0
 10
29.03696434252798
 20
90.291022317270006
 30
0.0
 11
28.14045562633769
 21
88.368453171102772
 31
0.0
  0
LINE
  5
1188
  8
0
 62
     0
 10
30.091799393744999
 20
90.674950877973657
 30
0.0
 11
29.195290677554709
 21
88.752381731806466
 31
0.0
  0
LINE
  5
1189
  8
0
 62
     0
 10
31.146634444962029
 20
91.058879438677323
 30
0.0
 11
30.250125728771732
 21
89.136310292510103
 31
0.0
  0
LINE
  5
118A
  8
0
 62
     0
 10
32.137666465550033
 20
91.305981958647578
 30
0.0
 11
31.304960779988761
 21
89.520238853213769
 31
0.0
  0
LINE
  5
118B
  8
0
 62
     0
 10
32.521595026253692
 20
90.251146907430552
 30
0.0
 11
32.359795831205773
 21
89.904167413917421
 31
0.0
  0
ENDBLK
  5
118D
  8
0
  0
BLOCK
  8
0
  2
*U71
 70
     1
 10
0.0
 20
0.0
 30
0.0
  3
*U71
  1

  0
TEXT
  5
118F
  8
SAPA_ARTIKELNR
 10
16.566791439331141
 20
65.603890151849797
 30
0.0
 40
3.5
  1
42125
 50
19.999999999999979
  7
ISO
  0
ENDBLK
  5
1191
  8
0
  0
BLOCK
  8
0
  2
*U72
 70
     1
 10
0.0
 20
0.0
 30
0.0
  3
*U72
  1

  0
TEXT
  5
1193
  8
SAPA_ARTIKELNR
 10
32.101506715395963
 20
13.025306110682299
 30
0.0
 40
3.5
  1
01041
 50
90.0
  7
ISO
  0
ENDBLK
  5
1195
  8
0
  0
BLOCK
  8
0
  2
*U73
 70
     1
 10
0.0
 20
0.0
 30
0.0
  3
*U73
  1

  0
TEXT
  5
1197
  8
SAPA_ARTIKELNR
 10
28.56860988628333
 20
-9.8577819897956331
 30
0.0
 40
3.5
  1
68652
 50
90.0
  7
ISO
  0
ENDBLK
  5
1199
  8
0
  0
BLOCK
  8
0
  2
*U74
 70
     1
 10
0.0
 20
0.0
 30
0.0
  3
*U74
  1

  0
TEXT
  5
12BE
  8
0
 62
     2
 10
538.15888178287003
 20
240.51041478304231
 30
0.0
 40
6.0
  1
50
  7
BYGG-01473602$0$ISO
  0
ENDBLK
  5
12C0
  8
0
  0
BLOCK
  8
0
  2
*U75
 70
     1
 10
0.0
 20
0.0
 30
0.0
  3
*U75
  1

  0
TEXT
  5
12C2
  8
0
 62
     2
 10
582.23843509911433
 20
195.6081336894147
 30
0.0
 40
6.0
  1
58
 50
90.0
  7
BYGG-01473602$0$ISO
  0
ENDBLK
  5
12C4
  8
0
  0
BLOCK
  8
0
  2
*U76
 70
     1
 10
0.0
 20
0.0
 30
0.0
  3
*U76
  1

  0
TEXT
  5
131C
  8
0
 62
     2
 10
2.924893507843874
 20
11.80837843001756
 30
0.0
 40
3.0
  1
7
 50
90.0
  7
BYGG-014252$0$ISO
  0
ENDBLK
  5
131E
  8
0
  0
BLOCK
  8
0
  2
*U77
 70
     1
 10
0.0
 20
0.0
 30
0.0
  3
*U77
  1

  0
TEXT
  5
1320
  8
0
 62
     2
 10
29.55729736359487
 20
1.4710805811525349
 30
0.0
 40
3.0
  1
47.6
  7
BYGG-014252$0$ISO
  0
ENDBLK
  5
1322
  8
0
  0
BLOCK
  8
0
  2
*U78
 70
     1
 10
0.0
 20
0.0
 30
0.0
  3
*U78
  1

  0
TEXT
  5
1418
  8
0
 10
553.07022115798225
 20
440.5901921336424
 30
0.0
 40
3.5
  1
68652
  7
BYGG-01482101$0$STANDARD
  0
ENDBLK
  5
141A
  8
0
  0
BLOCK
  8
0
  2
*U79
 70
     1
 10
0.0
 20
0.0
 30
0.0
  3
*U79
  1

  0
TEXT
  5
1527
  8
0
 62
     2
 10
556.53618739060437
 20
455.84731427004709
 30
0.0
 40
6.0
  1
50
  7
BYGG-01482101$0$ISO
  0
ENDBLK
  5
1529
  8
0
  0
BLOCK
  8
0
  2
*U80
 70
     1
 10
0.0
 20
0.0
 30
0.0
  3
*U80
  1

  0
TEXT
  5
152B
  8
0
 62
     2
 10
599.56306936518126
 20
403.55707056770092
 30
0.0
 40
6.0
  1
60
 50
90.0
  7
BYGG-01482101$0$ISO
  0
ENDBLK
  5
152D
  8
0
  0
BLOCK
  8
0
  2
*U81
 70
     1
 10
0.0
 20
0.0
 30
0.0
  3
*U81
  1

  0
TEXT
  5
161E
  8
0
 10
641.15247639990275
 20
316.63306531357932
 30
0.0
 40
3.0
  1
47.6
  7
BYGG-014357$0$ISO
  0
ENDBLK
  5
1620
  8
0
  0
BLOCK
  8
0
  2
*U82
 70
     1
 10
0.0
 20
0.0
 30
0.0
  3
*U82
  1

  0
TEXT
  5
16B0
  8
0
 62
     2
 10
0.7689336711621581
 20
16.651818506144728
 30
0.0
 40
3.0
  1
18.5
 50
90.0
  7
BYGG-014257$0$ISO
  0
ENDBLK
  5
16B2
  8
0
  0
BLOCK
  8
0
  2
*U83
 70
     1
 10
0.0
 20
0.0
 30
0.0
  3
*U83
  1

  0
TEXT
  5
16B4
  8
0
 62
     2
 10
33.599176484588639
 20
1.41803148711125
 30
0.0
 40
3.0
  1
50
  7
BYGG-014257$0$ISO
  0
ENDBLK
  5
16B6
  8
0
  0
BLOCK
  8
0
  2
*U84
 70
     1
 10
0.0
 20
0.0
 30
0.0
  3
*U84
  1

  0
SOLID
  5
16F4
  8
0
  6
CONTINUOUS
 10
-75.02846685536008
 20
18.884307771293681
 30
0.0
 11
-75.208744419133282
 21
18.809634359387239
 31
0.0
 12
-74.848189291586877
 22
18.809634359387239
 32
0.0
 13
-74.848189291586877
 23
18.809634359387239
 33
0.0
210
0.0
220
0.0
230
1.0
  0
SOLID
  5
16F5
  8
0
  6
CONTINUOUS
 10
-75.208744419133282
 20
18.809634359387239
 30
0.0
 11
-75.283417831039714
 21
18.62935679561404
 31
0.0
 12
-74.773515879680446
 22
18.62935679561404
 32
0.0
 13
-74.773515879680446
 23
18.62935679561404
 33
0.0
210
0.0
220
0.0
230
1.0
  0
SOLID
  5
16F6
  8
0
  6
CONTINUOUS
 10
75.208744419133282
 20
18.809634359387239
 30
0.0
 11
74.848189291586877
 21
18.809634359387239
 31
0.0
 12
74.773515879680446
 22
18.62935679561404
 32
0.0
 13
74.773515879680446
 23
18.62935679561404
 33
0.0
210
0.0
220
0.0
230
-1.0
  0
SOLID
  5
16F7
  8
0
  6
CONTINUOUS
 10
-75.283417831039714
 20
18.62935679561404
 30
0.0
 11
-75.208744419133282
 21
18.449079231840841
 31
0.0
 12
-74.848189291586877
 22
18.449079231840841
 32
0.0
 13
-74.848189291586877
 23
18.449079231840841
 33
0.0
210
0.0
220
0.0
230
1.0
  0
SOLID
  5
16F8
  8
0
  6
CONTINUOUS
 10
75.283417831039714
 20
18.62935679561404
 30
0.0
 11
74.773515879680446
 21
18.62935679561404
 31
0.0
 12
74.848189291586877
 22
18.449079231840841
 32
0.0
 13
74.848189291586877
 23
18.449079231840841
 33
0.0
210
0.0
220
0.0
230
-1.0
  0
SOLID
  5
16F9
  8
0
  6
CONTINUOUS
 10
75.208744419133282
 20
18.449079231840841
 30
0.0
 11
74.848189291586877
 21
18.449079231840841
 31
0.0
 12
75.02846685536008
 22
18.374405819934399
 32
0.0
 13
75.02846685536008
 23
18.374405819934399
 33
0.0
210
0.0
220
0.0
230
-1.0
  0
LINE
  5
16FA
  8
0
  6
CONTINUOUS
 10
-75.02846685536008
 20
18.884307771293681
 30
0.0
 11
-75.208744419133282
 21
18.809634359387239
 31
0.0
  0
LINE
  5
16FB
  8
0
  6
CONTINUOUS
 10
-74.848189291586877
 20
18.809634359387239
 30
0.0
 11
-75.02846685536008
 21
18.884307771293681
 31
0.0
  0
LINE
  5
16FC
  8
0
  6
CONTINUOUS
 10
-75.208744419133282
 20
18.809634359387239
 30
0.0
 11
-75.283417831039714
 21
18.62935679561404
 31
0.0
  0
LINE
  5
16FD
  8
0
  6
CONTINUOUS
 10
-74.848189291586877
 20
18.809634359387239
 30
0.0
 11
-74.773515879680446
 21
18.62935679561404
 31
0.0
  0
LINE
  5
16FE
  8
0
  6
CONTINUOUS
 10
-75.283417831039714
 20
18.62935679561404
 30
0.0
 11
-75.208744419133282
 21
18.449079231840841
 31
0.0
  0
LINE
  5
16FF
  8
0
  6
CONTINUOUS
 10
-74.773515879680446
 20
18.62935679561404
 30
0.0
 11
-74.848189291586877
 21
18.449079231840841
 31
0.0
  0
LINE
  5
1700
  8
0
  6
CONTINUOUS
 10
-74.848189291586877
 20
18.449079231840841
 30
0.0
 11
-75.02846685536008
 21
18.374405819934399
 31
0.0
  0
LINE
  5
1701
  8
0
  6
CONTINUOUS
 10
-75.02846685536008
 20
18.374405819934399
 30
0.0
 11
-75.208744419133282
 21
18.449079231840841
 31
0.0
  0
ENDBLK
  5
1703
  8
0
  0
BLOCK
  8
0
  2
*U85
 70
     1
 10
0.0
 20
0.0
 30
0.0
  3
*U85
  1

  0
TEXT
  5
1706
  8
0
 62
     2
 10
353.11747260330043
 20
-286.43530053846018
 30
0.0
 40
3.0
  1
20
 50
90.0
  7
BYGG-013688$0$ISO
  0
ENDBLK
  5
1708
  8
0
  0
BLOCK
  8
0
  2
*U86
 70
     1
 10
0.0
 20
0.0
 30
0.0
  3
*U86
  1

  0
TEXT
  5
170A
  8
0
 62
     2
 10
377.27147623776273
 20
-319.18310043974998
 30
0.0
 40
3.0
  1
35
  7
BYGG-013688$0$ISO
  0
ENDBLK
  5
170C
  8
0
  0
BLOCK
  8
0
  2
*U87
 70
     1
 10
0.0
 20
0.0
 30
0.0
  3
*U87
  1

  0
TEXT
  5
170E
  8
0
 62
     2
 10
361.9580258219238
 20
-263.79888361470682
 30
0.0
 40
3.0
  1
2
  7
BYGG-013688$0$ISO
  0
ENDBLK
  5
1710
  8
0
  0
BLOCK
  8
0
  2
*U88
 70
     1
 10
0.0
 20
0.0
 30
0.0
  3
*U88
  1

  0
TEXT
  5
1746
  8
0
 62
     2
 10
433.69527817380231
 20
-294.33407731713072
 30
0.0
 40
3.0
  1
15
 50
90.0
  7
BYGG-013692$0$ISO
  0
ENDBLK
  5
1748
  8
0
  0
BLOCK
  8
0
  2
*U89
 70
     1
 10
0.0
 20
0.0
 30
0.0
  3
*U89
  1

  0
TEXT
  5
174A
  8
0
 62
     2
 10
444.24590635476051
 20
-320.70104887055612
 30
0.0
 40
3.0
  1
7
  7
BYGG-013692$0$ISO
  0
ENDBLK
  5
174C
  8
0
  0
BLOCK
  8
0
  2
*U90
 70
     1
 10
0.0
 20
0.0
 30
0.0
  3
*U90
  1

  0
TEXT
  5
1776
  8
0
 10
687.09015990081923
 20
288.1389169195736
 30
0.0
 40
1.5
  1
7
 50
285.0
  7
BYGG-014234$0$ISO
  0
ENDBLK
  5
1778
  8
0
  0
BLOCK
  8
0
  2
*U91
 70
     1
 10
0.0
 20
0.0
 30
0.0
  3
*U91
  1

  0
TEXT
  5
177A
  8
0
 10
694.85526388962148
 20
299.0251262850374
 30
0.0
 40
1.5
  1
9.2
 50
15.0
  7
BYGG-014234$0$ISO
  0
ENDBLK
  5
177C
  8
0
  0
BLOCK
  8
0
  2
*U92
 70
     1
 10
0.0
 20
0.0
 30
0.0
  3
*U92
  1

  0
TEXT
  5
1786
  8
0
 10
266.63584829029531
 20
191.5824875829542
 30
0.0
 40
3.0
  1
9.19919397
 50
15.0
  7
BYGG-014234$0$ISO
  0
ENDBLK
  5
1788
  8
0
  0
BLOCK
  8
0
  2
*U93
 70
     1
 10
0.0
 20
0.0
 30
0.0
  3
*U93
  1

  0
TEXT
  5
178A
  8
0
 10
261.34055903157639
 20
167.0135146207883
 30
0.0
 40
3.0
  1
7
 50
285.0
  7
BYGG-014234$0$ISO
  0
ENDBLK
  5
178C
  8
0
  0
BLOCK
  8
0
  2
*U94
 70
     1
 10
0.0
 20
0.0
 30
0.0
  3
*U94
  1

  0
SOLID
  5
1822
  8
0
  6
CONTINUOUS
 10
9.4375787696808402
 20
24.826120052127731
 30
0.0
 11
9.2573012059076412
 21
24.751446640221289
 31
0.0
 12
9.6178563334540392
 22
24.751446640221289
 32
0.0
 13
9.6178563334540392
 23
24.751446640221289
 33
0.0
210
0.0
220
0.0
230
1.0
  0
SOLID
  5
1823
  8
0
  6
CONTINUOUS
 10
9.2573012059076412
 20
24.751446640221289
 30
0.0
 11
9.1826277940012009
 21
24.57116907644809
 31
0.0
 12
9.6925297453604795
 22
24.57116907644809
 32
0.0
 13
9.6925297453604795
 23
24.57116907644809
 33
0.0
210
0.0
220
0.0
230
1.0
  0
SOLID
  5
1824
  8
0
  6
CONTINUOUS
 10
-9.2573012059076412
 20
24.751446640221289
 30
0.0
 11
-9.6178563334540392
 21
24.751446640221289
 31
0.0
 12
-9.6925297453604795
 22
24.57116907644809
 32
0.0
 13
-9.6925297453604795
 23
24.57116907644809
 33
0.0
210
0.0
220
0.0
230
-1.0
  0
SOLID
  5
1825
  8
0
  6
CONTINUOUS
 10
9.1826277940012009
 20
24.57116907644809
 30
0.0
 11
9.2573012059076412
 21
24.390891512674891
 31
0.0
 12
9.6178563334540392
 22
24.390891512674891
 32
0.0
 13
9.6178563334540392
 23
24.390891512674891
 33
0.0
210
0.0
220
0.0
230
1.0
  0
SOLID
  5
1826
  8
0
  6
CONTINUOUS
 10
-9.1826277940012009
 20
24.57116907644809
 30
0.0
 11
-9.6925297453604795
 21
24.57116907644809
 31
0.0
 12
-9.6178563334540392
 22
24.390891512674891
 32
0.0
 13
-9.6178563334540392
 23
24.390891512674891
 33
0.0
210
0.0
220
0.0
230
-1.0
  0
SOLID
  5
1827
  8
0
  6
CONTINUOUS
 10
-9.2573012059076412
 20
24.390891512674891
 30
0.0
 11
-9.6178563334540392
 21
24.390891512674891
 31
0.0
 12
-9.4375787696808402
 22
24.316218100768442
 32
0.0
 13
-9.4375787696808402
 23
24.316218100768442
 33
0.0
210
0.0
220
0.0
230
-1.0
  0
LINE
  5
1828
  8
0
  6
CONTINUOUS
 10
9.4375787696808402
 20
24.826120052127731
 30
0.0
 11
9.2573012059076412
 21
24.751446640221289
 31
0.0
  0
LINE
  5
1829
  8
0
  6
CONTINUOUS
 10
9.6178563334540392
 20
24.751446640221289
 30
0.0
 11
9.4375787696808402
 21
24.826120052127731
 31
0.0
  0
LINE
  5
182A
  8
0
  6
CONTINUOUS
 10
9.2573012059076412
 20
24.751446640221289
 30
0.0
 11
9.1826277940012009
 21
24.57116907644809
 31
0.0
  0
LINE
  5
182B
  8
0
  6
CONTINUOUS
 10
9.6178563334540392
 20
24.751446640221289
 30
0.0
 11
9.6925297453604795
 21
24.57116907644809
 31
0.0
  0
LINE
  5
182C
  8
0
  6
CONTINUOUS
 10
9.1826277940012009
 20
24.57116907644809
 30
0.0
 11
9.2573012059076412
 21
24.390891512674891
 31
0.0
  0
LINE
  5
182D
  8
0
  6
CONTINUOUS
 10
9.6925297453604795
 20
24.57116907644809
 30
0.0
 11
9.6178563334540392
 21
24.390891512674891
 31
0.0
  0
LINE
  5
182E
  8
0
  6
CONTINUOUS
 10
9.6178563334540392
 20
24.390891512674891
 30
0.0
 11
9.4375787696808402
 21
24.316218100768442
 31
0.0
  0
LINE
  5
182F
  8
0
  6
CONTINUOUS
 10
9.4375787696808402
 20
24.316218100768442
 30
0.0
 11
9.2573012059076412
 21
24.390891512674891
 31
0.0
  0
ENDBLK
  5
1831
  8
0
  0
BLOCK
  8
0
  2
*U95
 70
     1
 10
0.0
 20
0.0
 30
0.0
  3
*U95
  1

  0
TEXT
  5
1844
  8
0
 62
     2
 10
36.207875739181063
 20
84.704424281011683
 30
0.0
 40
6.0
  1
50
 50
19.999999999999531
  7
BYGG-01473602$0$ISO
  0
ENDBLK
  5
1846
  8
0
  0
BLOCK
  8
0
  2
*U96
 70
     1
 10
0.0
 20
0.0
 30
0.0
  3
*U96
  1

  0
TEXT
  5
1848
  8
0
 62
     2
 10
-11.30490177432341
 20
110.9384859021837
 30
0.0
 40
6.0
  1
58
 50
289.99999999999949
  7
BYGG-01473602$0$ISO
  0
ENDBLK
  5
184A
  8
0
  0
BLOCK
  8
0
  2
*U97
 70
     1
 10
0.0
 20
0.0
 30
0.0
  3
*U97
  1

  0
TEXT
  5
184C
  8
0
 62
     2
 10
-4.3390097752564358
 20
197.21113659191101
 30
0.0
 40
3.0
  1
47.6
 50
20.000000000000028
  7
BYGG-014252$0$ISO
  0
ENDBLK
  5
184E
  8
0
  0
BLOCK
  8
0
  2
*U98
 70
     1
 10
0.0
 20
0.0
 30
0.0
  3
*U98
  1

  0
TEXT
  5
1850
  8
0
 62
     2
 10
38.767409056675731
 20
-4.2023622047241789
 30
0.0
 40
6.0
  1
50
 50
90.0
  7
BYGG-01482101$0$ISO
  0
ENDBLK
  5
1852
  8
0
  0
BLOCK
  8
0
  2
*U99
 70
     1
 10
0.0
 20
0.0
 30
0.0
  3
*U99
  1

  0
TEXT
  5
1854
  8
0
 62
     2
 10
-9.5228346456705406
 20
-38.824519769852373
 30
0.0
 40
6.0
  1
60
  7
BYGG-01482101$0$ISO
  0
ENDBLK
  5
1856
  8
0
  0
BLOCK
  8
0
  2
*U100
 70
     1
 10
0.0
 20
0.0
 30
0.0
  3
*U100
  1

  0
TEXT
  5
1858
  8
0
 10
-97.896778417594248
 20
-3.8244094488189102
 30
0.0
 40
3.0
  1
47.6
 50
90.0
  7
BYGG-014357$0$ISO
  0
ENDBLK
  5
185A
  8
0
  0
BLOCK
  8
0
  2
*U101
 70
     1
 10
0.0
 20
0.0
 30
0.0
  3
*U101
  1

  0
TEXT
  5
185C
  8
0
 62
     2
 10
-83.889392892457423
 20
-34.73142391578876
 30
0.0
 40
3.0
  1
18.5
 50
180.0
  7
BYGG-014257$0$ISO
  0
ENDBLK
  5
185E
  8
0
  0
BLOCK
  8
0
  2
*U102
 70
     1
 10
0.0
 20
0.0
 30
0.0
  3
*U102
  1

  0
TEXT
  5
1860
  8
0
 62
     2
 10
-107.8474439802028
 20
-1.9011811023622689
 30
0.0
 40
3.0
  1
50
 50
90.000000000000028
  7
BYGG-014257$0$ISO
  0
ENDBLK
  5
1862
  8
0
  0
BLOCK
  8
0
  2
*U103
 70
     1
 10
0.0
 20
0.0
 30
0.0
  3
*U103
  1

  0
TEXT
  5
1864
  8
0
 62
     2
 10
-114.0422571989194
 20
37.169099943077597
 30
0.0
 40
3.0
  1
20
 50
90.0
  7
BYGG-013688$0$ISO
  0
ENDBLK
  5
1866
  8
0
  0
BLOCK
  8
0
  2
*U104
 70
     1
 10
0.0
 20
0.0
 30
0.0
  3
*U104
  1

  0
TEXT
  5
1868
  8
0
 62
     2
 10
-89.888253564456988
 20
4.4213000417878661
 30
0.0
 40
3.0
  1
35
  7
BYGG-013688$0$ISO
  0
ENDBLK
  5
186A
  8
0
  0
BLOCK
  8
0
  2
*U105
 70
     1
 10
0.0
 20
0.0
 30
0.0
  3
*U105
  1

  0
TEXT
  5
186C
  8
0
 62
     2
 10
-105.2017039802959
 20
59.805516866831113
 30
0.0
 40
3.0
  1
2
  7
BYGG-013688$0$ISO
  0
ENDBLK
  5
186E
  8
0
  0
BLOCK
  8
0
  2
*U106
 70
     1
 10
0.0
 20
0.0
 30
0.0
  3
*U106
  1

  0
TEXT
  5
1870
  8
0
 10
-0.2343009567560863
 20
73.438438137844443
 30
0.0
 40
1.5
  1
7
 50
304.99999999999739
  7
BYGG-014234$0$ISO
  0
ENDBLK
  5
1872
  8
0
  0
BLOCK
  8
0
  2
*U107
 70
     1
 10
0.0
 20
0.0
 30
0.0
  3
*U107
  1

  0
TEXT
  5
1874
  8
0
 10
3.3392070737075201
 20
86.323950726089564
 30
0.0
 40
1.5
  1
9.2
 50
35.000000000000021
  7
BYGG-014234$0$ISO
  0
ENDBLK
  5
1876
  8
0
  0
BLOCK
  8
0
  2
*U108
 70
     1
 10
0.0
 20
0.0
 30
0.0
  3
*U108
  1

  0
TEXT
  5
1EB2
  8
0
 62
     2
 10
18.099371819040471
 20
15.637867965644441
 30
0.0
 40
3.0
  1
15
 50
90.0
  7
BYGG-013692$0$ISO
  0
ENDBLK
  5
1EB4
  8
0
  0
BLOCK
  8
0
  2
*U109
 70
     1
 10
0.0
 20
0.0
 30
0.0
  3
*U109
  1

  0
TEXT
  5
1EB6
  8
0
 62
     2
 10
28.649999999998741
 20
-10.72910358778085
 30
0.0
 40
3.0
  1
7
  7
BYGG-013692$0$ISO
  0
ENDBLK
  5
1EB8
  8
0
  0
BLOCK
  8
0
  2
*U110
 70
     1
 10
0.0
 20
0.0
 30
0.0
  3
*U110
  1

  0
TEXT
  5
1EBA
  8
0
 62
     2
 10
32.094406656141253
 20
197.3427375623879
 30
0.0
 40
3.0
  1
7
 50
290.00000000000011
  7
BYGG-014252$0$ISO
  0
ENDBLK
  5
1EBC
  8
0
  0
BLOCK
  8
0
  2
*U111
 70
     1
 10
0.0
 20
0.0
 30
0.0
  3
*U111
  1

  0
SOLID
  5
200A
  8
SAPA_FOGBAND
  6
CONTINUOUS
 10
-75.02846685536008
 20
18.884307771293681
 30
0.0
 11
-75.208744419133282
 21
18.809634359387239
 31
0.0
 12
-74.848189291586877
 22
18.809634359387239
 32
0.0
 13
-74.848189291586877
 23
18.809634359387239
 33
0.0
210
0.0
220
0.0
230
1.0
  0
SOLID
  5
200B
  8
SAPA_FOGBAND
  6
CONTINUOUS
 10
-75.208744419133282
 20
18.809634359387239
 30
0.0
 11
-75.283417831039714
 21
18.62935679561404
 31
0.0
 12
-74.773515879680446
 22
18.62935679561404
 32
0.0
 13
-74.773515879680446
 23
18.62935679561404
 33
0.0
210
0.0
220
0.0
230
1.0
  0
SOLID
  5
200C
  8
SAPA_FOGBAND
  6
CONTINUOUS
 10
75.208744419133282
 20
18.809634359387239
 30
0.0
 11
74.848189291586877
 21
18.809634359387239
 31
0.0
 12
74.773515879680446
 22
18.62935679561404
 32
0.0
 13
74.773515879680446
 23
18.62935679561404
 33
0.0
210
0.0
220
0.0
230
-1.0
  0
SOLID
  5
200D
  8
SAPA_FOGBAND
  6
CONTINUOUS
 10
-75.283417831039714
 20
18.62935679561404
 30
0.0
 11
-75.208744419133282
 21
18.449079231840841
 31
0.0
 12
-74.848189291586877
 22
18.449079231840841
 32
0.0
 13
-74.848189291586877
 23
18.449079231840841
 33
0.0
210
0.0
220
0.0
230
1.0
  0
SOLID
  5
200E
  8
SAPA_FOGBAND
  6
CONTINUOUS
 10
75.283417831039714
 20
18.62935679561404
 30
0.0
 11
74.773515879680446
 21
18.62935679561404
 31
0.0
 12
74.848189291586877
 22
18.449079231840841
 32
0.0
 13
74.848189291586877
 23
18.449079231840841
 33
0.0
210
0.0
220
0.0
230
-1.0
  0
SOLID
  5
200F
  8
SAPA_FOGBAND
  6
CONTINUOUS
 10
75.208744419133282
 20
18.449079231840841
 30
0.0
 11
74.848189291586877
 21
18.449079231840841
 31
0.0
 12
75.02846685536008
 22
18.374405819934399
 32
0.0
 13
75.02846685536008
 23
18.374405819934399
 33
0.0
210
0.0
220
0.0
230
-1.0
  0
LINE
  5
2010
  8
SAPA_FOGBAND
  6
CONTINUOUS
 10
-75.02846685536008
 20
18.884307771293681
 30
0.0
 11
-75.208744419133282
 21
18.809634359387239
 31
0.0
  0
LINE
  5
2011
  8
SAPA_FOGBAND
  6
CONTINUOUS
 10
-74.848189291586877
 20
18.809634359387239
 30
0.0
 11
-75.02846685536008
 21
18.884307771293681
 31
0.0
  0
LINE
  5
2012
  8
SAPA_FOGBAND
  6
CONTINUOUS
 10
-75.208744419133282
 20
18.809634359387239
 30
0.0
 11
-75.283417831039714
 21
18.62935679561404
 31
0.0
  0
LINE
  5
2013
  8
SAPA_FOGBAND
  6
CONTINUOUS
 10
-74.848189291586877
 20
18.809634359387239
 30
0.0
 11
-74.773515879680446
 21
18.62935679561404
 31
0.0
  0
LINE
  5
2014
  8
SAPA_FOGBAND
  6
CONTINUOUS
 10
-75.283417831039714
 20
18.62935679561404
 30
0.0
 11
-75.208744419133282
 21
18.449079231840841
 31
0.0
  0
LINE
  5
2015
  8
SAPA_FOGBAND
  6
CONTINUOUS
 10
-74.773515879680446
 20
18.62935679561404
 30
0.0
 11
-74.848189291586877
 21
18.449079231840841
 31
0.0
  0
LINE
  5
2016
  8
SAPA_FOGBAND
  6
CONTINUOUS
 10
-74.848189291586877
 20
18.449079231840841
 30
0.0
 11
-75.02846685536008
 21
18.374405819934399
 31
0.0
  0
LINE
  5
2017
  8
SAPA_FOGBAND
  6
CONTINUOUS
 10
-75.02846685536008
 20
18.374405819934399
 30
0.0
 11
-75.208744419133282
 21
18.449079231840841
 31
0.0
  0
ENDBLK
  5
2019
  8
0
  0
BLOCK
  8
0
  2
*U112
 70
     1
 10
0.0
 20
0.0
 30
0.0
  3
*U112
  1

  0
SOLID
  5
201B
  8
SAPA_FOGBAND
  6
CONTINUOUS
 10
-75.022399609151762
 20
-18.37447802340532
 30
0.0
 11
-75.070745376996641
 21
-18.377935780964481
 31
0.0
 12
-74.993480042048674
 22
-18.377935780964481
 32
0.0
 13
-74.993480042048674
 23
-18.377935780964481
 33
0.0
210
0.0
220
0.0
230
1.0
  0
SOLID
  5
201C
  8
SAPA_FOGBAND
  6
CONTINUOUS
 10
-75.070745376996641
 20
-18.377935780964481
 30
0.0
 11
-75.079315911465073
 21
-18.380232248754009
 31
0.0
 12
-74.974273127392919
 22
-18.380232248754009
 32
0.0
 13
-74.974273127392919
 23
-18.380232248754009
 33
0.0
210
0.0
220
0.0
230
1.0
  0
SOLID
  5
201D
  8
SAPA_FOGBAND
  6
CONTINUOUS
 10
75.070745376996641
 20
-18.377935780964481
 30
0.0
 11
74.993480042048674
 21
-18.377935780964481
 31
0.0
 12
74.974273127392919
 22
-18.380232248754009
 32
0.0
 13
74.974273127392919
 23
-18.380232248754009
 33
0.0
210
0.0
220
0.0
230
-1.0
  0
SOLID
  5
201E
  8
SAPA_FOGBAND
  6
CONTINUOUS
 10
-75.079315911465073
 20
-18.380232248754009
 30
0.0
 11
-75.117563088913954
 21
-18.3904805490642
 31
0.0
 12
-74.942213653597463
 22
-18.3904805490642
 32
0.0
 13
-74.942213653597463
 23
-18.3904805490642
 33
0.0
210
0.0
220
0.0
230
1.0
  0
SOLID
  5
201F
  8
SAPA_FOGBAND
  6
CONTINUOUS
 10
75.079315911465073
 20
-18.380232248754009
 30
0.0
 11
74.974273127392919
 21
-18.380232248754009
 31
0.0
 12
74.942213653597463
 22
-18.3904805490642
 32
0.0
 13
74.942213653597463
 23
-18.3904805490642
 33
0.0
210
0.0
220
0.0
230
-1.0
  0
SOLID
  5
2020
  8
SAPA_FOGBAND
  6
CONTINUOUS
 10
-75.117563088913954
 20
-18.3904805490642
 30
0.0
 11
-75.12684718473453
 21
-18.394990484313951
 31
0.0
 12
-74.928105348163186
 22
-18.394990484313951
 32
0.0
 13
-74.928105348163186
 23
-18.394990484313951
 33
0.0
210
0.0
220
0.0
230
1.0
  0
SOLID
  5
2021
  8
SAPA_FOGBAND
  6
CONTINUOUS
 10
75.117563088913954
 20
-18.3904805490642
 30
0.0
 11
74.942213653597463
 21
-18.3904805490642
 31
0.0
 12
74.928105348163186
 22
-18.394990484313951
 32
0.0
 13
74.928105348163186
 23
-18.394990484313951
 33
0.0
210
0.0
220
0.0
230
-1.0
  0
SOLID
  5
2022
  8
SAPA_FOGBAND
  6
CONTINUOUS
 10
-75.12684718473453
 20
-18.394990484313951
 30
0.0
 11
-75.16116063081266
 21
-18.41165892710028
 31
0.0
 12
-74.897579374342172
 22
-18.41165892710028
 32
0.0
 13
-74.897579374342172
 23
-18.41165892710028
 33
0.0
210
0.0
220
0.0
230
1.0
  0
SOLID
  5
2023
  8
SAPA_FOGBAND
  6
CONTINUOUS
 10
75.12684718473453
 20
-18.394990484313951
 30
0.0
 11
74.928105348163186
 21
-18.394990484313951
 31
0.0
 12
74.897579374342172
 22
-18.41165892710028
 32
0.0
 13
74.897579374342172
 23
-18.41165892710028
 33
0.0
210
0.0
220
0.0
230
-1.0
  0
SOLID
  5
2024
  8
SAPA_FOGBAND
  6
CONTINUOUS
 10
-75.16116063081266
 20
-18.41165892710028
 30
0.0
 11
-75.169924301763686
 21
-18.4182193289998
 31
0.0
 12
-74.885564895292902
 22
-18.4182193289998
 32
0.0
 13
-74.885564895292902
 23
-18.4182193289998
 33
0.0
210
0.0
220
0.0
230
1.0
  0
SOLID
  5
2025
  8
SAPA_FOGBAND
  6
CONTINUOUS
 10
75.16116063081266
 20
-18.41165892710028
 30
0.0
 11
74.897579374342172
 21
-18.41165892710028
 31
0.0
 12
74.885564895292902
 22
-18.4182193289998
 32
0.0
 13
74.885564895292902
 23
-18.4182193289998
 33
0.0
210
0.0
220
0.0
230
-1.0
  0
SOLID
  5
2026
  8
SAPA_FOGBAND
  6
CONTINUOUS
 10
-75.169924301763686
 20
-18.4182193289998
 30
0.0
 11
-75.199962273936237
 21
-18.440705473310761
 31
0.0
 12
-74.858331069479249
 22
-18.440705473310761
 32
0.0
 13
-74.858331069479249
 23
-18.440705473310761
 33
0.0
210
0.0
220
0.0
230
1.0
  0
SOLID
  5
2027
  8
SAPA_FOGBAND
  6
CONTINUOUS
 10
75.169924301763686
 20
-18.4182193289998
 30
0.0
 11
74.885564895292902
 21
-18.4182193289998
 31
0.0
 12
74.858331069479249
 22
-18.440705473310761
 32
0.0
 13
74.858331069479249
 23
-18.440705473310761
 33
0.0
210
0.0
220
0.0
230
-1.0
  0
SOLID
  5
2028
  8
SAPA_FOGBAND
  6
CONTINUOUS
 10
-75.199962273936237
 20
-18.440705473310761
 30
0.0
 11
-75.207574524976422
 21
-18.449079231842461
 31
0.0
 12
-74.848189291586877
 22
-18.449079231842461
 32
0.0
 13
-74.848189291586877
 23
-18.449079231842461
 33
0.0
  0
SOLID
  5
2029
  8
SAPA_FOGBAND
  6
CONTINUOUS
 10
75.199962273936237
 20
-18.440705473310761
 30
0.0
 11
74.858331069479249
 21
-18.440705473310761
 31
0.0
 12
74.848189291586877
 22
-18.449079231842461
 32
0.0
 13
74.848189291586877
 23
-18.449079231842461
 33
0.0
210
0.0
220
0.0
230
-1.0
  0
SOLID
  5
202A
  8
SAPA_FOGBAND
  6
CONTINUOUS
 10
-75.207574524976422
 20
-18.449079231842461
 30
0.0
 11
-75.232565625805535
 21
-18.476570369835581
 31
0.0
 12
-74.825490692410412
 22
-18.476570369835581
 32
0.0
 13
-74.825490692410412
 23
-18.476570369835581
 33
0.0
  0
SOLID
  5
202B
  8
SAPA_FOGBAND
  6
CONTINUOUS
 10
75.207574524976422
 20
-18.449079231842461
 30
0.0
 11
74.848189291586877
 21
-18.449079231842461
 31
0.0
 12
74.825490692410412
 22
-18.476570369835581
 32
0.0
 13
74.825490692410412
 23
-18.476570369835581
 33
0.0
210
0.0
220
0.0
230
-1.0
  0
SOLID
  5
202C
  8
SAPA_FOGBAND
  6
CONTINUOUS
 10
-75.232565625805535
 20
-18.476570369835581
 30
0.0
 11
-75.238590522065294
 21
-18.486454835548479
 31
0.0
 12
-74.817329388744227
 22
-18.486454835548479
 32
0.0
 13
-74.817329388744227
 23
-18.486454835548479
 33
0.0
210
0.0
220
0.0
230
1.0
  0
SOLID
  5
202D
  8
SAPA_FOGBAND
  6
CONTINUOUS
 10
75.232565625805535
 20
-18.476570369835581
 30
0.0
 11
74.825490692410412
 21
-18.476570369835581
 31
0.0
 12
74.817329388744227
 22
-18.486454835548479
 32
0.0
 13
74.817329388744227
 23
-18.486454835548479
 33
0.0
210
0.0
220
0.0
230
-1.0
  0
SOLID
  5
202E
  8
SAPA_FOGBAND
  6
CONTINUOUS
 10
-75.238590522065294
 20
-18.486454835548479
 30
0.0
 11
-75.257792316336761
 21
-18.517957365869229
 31
0.0
 12
-74.800127705765817
 22
-18.517957365869229
 32
0.0
 13
-74.800127705765817
 23
-18.517957365869229
 33
0.0
210
0.0
220
0.0
230
1.0
  0
SOLID
  5
202F
  8
SAPA_FOGBAND
  6
CONTINUOUS
 10
75.238590522065294
 20
-18.486454835548479
 30
0.0
 11
74.817329388744227
 21
-18.486454835548479
 31
0.0
 12
74.800127705765817
 22
-18.517957365869229
 32
0.0
 13
74.800127705765817
 23
-18.517957365869229
 33
0.0
210
0.0
220
0.0
230
-1.0
  0
SOLID
  5
2030
  8
SAPA_FOGBAND
  6
CONTINUOUS
 10
-75.257792316336761
 20
-18.517957365869229
 30
0.0
 11
-75.261909248596126
 21
-18.528995288418759
 31
0.0
 12
-74.794100544058367
 22
-18.528995288418759
 32
0.0
 13
-74.794100544058367
 23
-18.528995288418759
 33
0.0
210
0.0
220
0.0
230
1.0
  0
SOLID
  5
2031
  8
SAPA_FOGBAND
  6
CONTINUOUS
 10
75.257792316336761
 20
-18.517957365869229
 30
0.0
 11
74.800127705765817
 21
-18.517957365869229
 31
0.0
 12
74.794100544058367
 22
-18.528995288418759
 32
0.0
 13
74.794100544058367
 23
-18.528995288418759
 33
0.0
210
0.0
220
0.0
230
-1.0
  0
SOLID
  5
2032
  8
SAPA_FOGBAND
  6
CONTINUOUS
 10
-75.261909248596126
 20
-18.528995288418759
 30
0.0
 11
-75.274730587206648
 21
-18.563370627542309
 31
0.0
 12
-74.783111942035433
 22
-18.563370627542309
 32
0.0
 13
-74.783111942035433
 23
-18.563370627542309
 33
0.0
210
0.0
220
0.0
230
1.0
  0
SOLID
  5
2033
  8
SAPA_FOGBAND
  6
CONTINUOUS
 10
75.261909248596126
 20
-18.528995288418759
 30
0.0
 11
74.794100544058367
 21
-18.528995288418759
 31
0.0
 12
74.783111942035433
 22
-18.563370627542309
 32
0.0
 13
74.783111942035433
 23
-18.563370627542309
 33
0.0
210
0.0
220
0.0
230
-1.0
  0
SOLID
  5
2034
  8
SAPA_FOGBAND
  6
CONTINUOUS
 10
-75.274730587206648
 20
-18.563370627542309
 30
0.0
 11
-75.276713583476351
 21
-18.5751630676485
 31
0.0
 12
-74.779342308498428
 22
-18.5751630676485
 32
0.0
 13
-74.779342308498428
 23
-18.5751630676485
 33
0.0
210
0.0
220
0.0
230
1.0
  0
SOLID
  5
2035
  8
SAPA_FOGBAND
  6
CONTINUOUS
 10
75.274730587206648
 20
-18.563370627542309
 30
0.0
 11
74.783111942035433
 21
-18.563370627542309
 31
0.0
 12
74.779342308498428
 22
-18.5751630676485
 32
0.0
 13
74.779342308498428
 23
-18.5751630676485
 33
0.0
210
0.0
220
0.0
230
-1.0
  0
SOLID
  5
2036
  8
SAPA_FOGBAND
  6
CONTINUOUS
 10
-75.276713583476351
 20
-18.5751630676485
 30
0.0
 11
-75.282768245173685
 21
-18.611168801254841
 31
0.0
 12
-74.7750372960096
 22
-18.611168801254841
 32
0.0
 13
-74.7750372960096
 23
-18.611168801254841
 33
0.0
210
0.0
220
0.0
230
1.0
  0
SOLID
  5
2037
  8
SAPA_FOGBAND
  6
CONTINUOUS
 10
75.276713583476351
 20
-18.5751630676485
 30
0.0
 11
74.779342308498428
 21
-18.5751630676485
 31
0.0
 12
74.7750372960096
 22
-18.611168801254841
 32
0.0
 13
74.7750372960096
 23
-18.611168801254841
 33
0.0
210
0.0
220
0.0
230
-1.0
  0
SOLID
  5
2038
  8
SAPA_FOGBAND
  6
CONTINUOUS
 10
-75.282768245173685
 20
-18.611168801254841
 30
0.0
 11
-75.282479717562566
 21
-18.62328954940735
 31
0.0
 12
-74.773588083149747
 22
-18.62328954940735
 32
0.0
 13
-74.773588083149747
 23
-18.62328954940735
 33
0.0
210
0.0
220
0.0
230
1.0
  0
SOLID
  5
2039
  8
SAPA_FOGBAND
  6
CONTINUOUS
 10
75.282768245173685
 20
-18.611168801254841
 30
0.0
 11
74.7750372960096
 21
-18.611168801254841
 31
0.0
 12
74.773588083149747
 22
-18.62328954940735
 32
0.0
 13
74.773588083149747
 23
-18.62328954940735
 33
0.0
210
0.0
220
0.0
230
-1.0
  0
SOLID
  5
203A
  8
SAPA_FOGBAND
  6
CONTINUOUS
 10
-75.282479717562566
 20
-18.62328954940735
 30
0.0
 11
-75.281614788337052
 21
-18.659624336471921
 31
0.0
 12
-74.776186798409285
 22
-18.659624336471921
 32
0.0
 13
-74.776186798409285
 23
-18.659624336471921
 33
0.0
210
0.0
220
0.0
230
1.0
  0
SOLID
  5
203B
  8
SAPA_FOGBAND
  6
CONTINUOUS
 10
75.282479717562566
 20
-18.62328954940735
 30
0.0
 11
74.773588083149747
 21
-18.62328954940735
 31
0.0
 12
74.776186798409285
 22
-18.659624336471921
 32
0.0
 13
74.776186798409285
 23
-18.659624336471921
 33
0.0
210
0.0
220
0.0
230
-1.0
  0
SOLID
  5
203C
  8
SAPA_FOGBAND
  6
CONTINUOUS
 10
-75.281614788337052
 20
-18.659624336471921
 30
0.0
 11
-75.279001959399764
 21
-18.671635317252221
 31
0.0
 12
-74.777045840708908
 22
-18.671635317252221
 32
0.0
 13
-74.777045840708908
 23
-18.671635317252221
 33
0.0
210
0.0
220
0.0
230
1.0
  0
SOLID
  5
203D
  8
SAPA_FOGBAND
  6
CONTINUOUS
 10
75.281614788337052
 20
-18.659624336471921
 30
0.0
 11
74.776186798409285
 21
-18.659624336471921
 31
0.0
 12
74.777045840708908
 22
-18.671635317252221
 32
0.0
 13
74.777045840708908
 23
-18.671635317252221
 33
0.0
210
0.0
220
0.0
230
-1.0
  0
SOLID
  5
203E
  8
SAPA_FOGBAND
  6
CONTINUOUS
 10
-75.279001959399764
 20
-18.671635317252221
 30
0.0
 11
-75.271311905632132
 21
-18.706985923901151
 31
0.0
 12
-74.786518007212436
 22
-18.706985923901151
 32
0.0
 13
-74.786518007212436
 23
-18.706985923901151
 33
0.0
210
0.0
220
0.0
230
1.0
  0
SOLID
  5
203F
  8
SAPA_FOGBAND
  6
CONTINUOUS
 10
75.279001959399764
 20
-18.671635317252221
 30
0.0
 11
74.777045840708908
 21
-18.671635317252221
 31
0.0
 12
74.786518007212436
 22
-18.706985923901151
 32
0.0
 13
74.786518007212436
 23
-18.706985923901151
 33
0.0
210
0.0
220
0.0
230
-1.0
  0
SOLID
  5
2040
  8
SAPA_FOGBAND
  6
CONTINUOUS
 10
-75.271311905632132
 20
-18.706985923901151
 30
0.0
 11
-75.266401404794664
 21
-18.718453029169531
 31
0.0
 12
-74.789590608808624
 22
-18.718453029169531
 32
0.0
 13
-74.789590608808624
 23
-18.718453029169531
 33
0.0
210
0.0
220
0.0
230
1.0
  0
SOLID
  5
2041
  8
SAPA_FOGBAND
  6
CONTINUOUS
 10
75.271311905632132
 20
-18.706985923901151
 30
0.0
 11
74.786518007212436
 21
-18.706985923901151
 31
0.0
 12
74.789590608808624
 22
-18.718453029169531
 32
0.0
 13
74.789590608808624
 23
-18.718453029169531
 33
0.0
210
0.0
220
0.0
230
-1.0
  0
SOLID
  5
2042
  8
SAPA_FOGBAND
  6
CONTINUOUS
 10
-75.266401404794664
 20
-18.718453029169531
 30
0.0
 11
-75.25223197008377
 21
-18.75154179237343
 31
0.0
 12
-74.8056641373921
 22
-18.75154179237343
 32
0.0
 13
-74.8056641373921
 23
-18.75154179237343
 33
0.0
210
0.0
220
0.0
230
1.0
  0
SOLID
  5
2043
  8
SAPA_FOGBAND
  6
CONTINUOUS
 10
75.266401404794664
 20
-18.718453029169531
 30
0.0
 11
74.789590608808624
 21
-18.718453029169531
 31
0.0
 12
74.8056641373921
 22
-18.75154179237343
 32
0.0
 13
74.8056641373921
 23
-18.75154179237343
 33
0.0
210
0.0
220
0.0
230
-1.0
  0
SOLID
  5
2044
  8
SAPA_FOGBAND
  6
CONTINUOUS
 10
-75.25223197008377
 20
-18.75154179237343
 30
0.0
 11
-75.245119423469134
 21
-18.76205057106824
 31
0.0
 12
-74.810768986844693
 22
-18.76205057106824
 32
0.0
 13
-74.810768986844693
 23
-18.76205057106824
 33
0.0
210
0.0
220
0.0
230
1.0
  0
SOLID
  5
2045
  8
SAPA_FOGBAND
  6
CONTINUOUS
 10
75.25223197008377
 20
-18.75154179237343
 30
0.0
 11
74.8056641373921
 21
-18.75154179237343
 31
0.0
 12
74.810768986844693
 22
-18.76205057106824
 32
0.0
 13
74.810768986844693
 23
-18.76205057106824
 33
0.0
210
0.0
220
0.0
230
-1.0
  0
SOLID
  5
2046
  8
SAPA_FOGBAND
  6
CONTINUOUS
 10
-75.245119423469134
 20
-18.76205057106824
 30
0.0
 11
-75.225064580274989
 21
-18.791681576712971
 31
0.0
 12
-74.832950479828938
 22
-18.791681576712971
 32
0.0
 13
-74.832950479828938
 23
-18.791681576712971
 33
0.0
  0
SOLID
  5
2047
  8
SAPA_FOGBAND
  6
CONTINUOUS
 10
75.245119423469134
 20
-18.76205057106824
 30
0.0
 11
74.810768986844693
 21
-18.76205057106824
 31
0.0
 12
74.832950479828938
 22
-18.791681576712971
 32
0.0
 13
74.832950479828938
 23
-18.791681576712971
 33
0.0
210
0.0
220
0.0
230
-1.0
  0
SOLID
  5
2048
  8
SAPA_FOGBAND
  6
CONTINUOUS
 10
-75.225064580274989
 20
-18.791681576712971
 30
0.0
 11
-75.215893942796129
 21
-18.800852214191821
 31
0.0
 12
-74.839815533055173
 22
-18.800852214191821
 32
0.0
 13
-74.839815533055173
 23
-18.800852214191821
 33
0.0
210
0.0
220
0.0
230
1.0
  0
SOLID
  5
2049
  8
SAPA_FOGBAND
  6
CONTINUOUS
 10
75.225064580274989
 20
-18.791681576712971
 30
0.0
 11
74.832950479828938
 21
-18.791681576712971
 31
0.0
 12
74.839815533055173
 22
-18.800852214191821
 32
0.0
 13
74.839815533055173
 23
-18.800852214191821
 33
0.0
210
0.0
220
0.0
230
-1.0
  0
SOLID
  5
204A
  8
SAPA_FOGBAND
  6
CONTINUOUS
 10
-75.215893942796129
 20
-18.800852214191821
 30
0.0
 11
-75.190791636457391
 21
-18.825954520530559
 31
0.0
 12
-74.867429001234242
 22
-18.825954520530559
 32
0.0
 13
-74.867429001234242
 23
-18.825954520530559
 33
0.0
210
0.0
220
0.0
230
1.0
  0
SOLID
  5
204B
  8
SAPA_FOGBAND
  6
CONTINUOUS
 10
75.215893942796129
 20
-18.800852214191821
 30
0.0
 11
74.839815533055173
 21
-18.800852214191821
 31
0.0
 12
74.867429001234242
 22
-18.825954520530559
 32
0.0
 13
74.867429001234242
 23
-18.825954520530559
 33
0.0
210
0.0
220
0.0
230
-1.0
  0
SOLID
  5
204C
  8
SAPA_FOGBAND
  6
CONTINUOUS
 10
-75.190791636457391
 20
-18.825954520530559
 30
0.0
 11
-75.179708851101992
 21
-18.833455566061119
 31
0.0
 12
-74.875680429580001
 22
-18.833455566061119
 32
0.0
 13
-74.875680429580001
 23
-18.833455566061119
 33
0.0
210
0.0
220
0.0
230
1.0
  0
SOLID
  5
204D
  8
SAPA_FOGBAND
  6
CONTINUOUS
 10
75.190791636457391
 20
-18.825954520530559
 30
0.0
 11
74.867429001234242
 21
-18.825954520530559
 31
0.0
 12
74.875680429580001
 22
-18.833455566061119
 32
0.0
 13
74.875680429580001
 23
-18.833455566061119
 33
0.0
210
0.0
220
0.0
230
-1.0
  0
SOLID
  5
204E
  8
SAPA_FOGBAND
  6
CONTINUOUS
 10
-75.179708851101992
 20
-18.833455566061119
 30
0.0
 11
-75.150651852117846
 21
-18.853121910339361
 31
0.0
 12
-74.907945102254061
 22
-18.853121910339361
 32
0.0
 13
-74.907945102254061
 23
-18.853121910339361
 33
0.0
  0
SOLID
  5
204F
  8
SAPA_FOGBAND
  6
CONTINUOUS
 10
75.179708851101992
 20
-18.833455566061119
 30
0.0
 11
74.875680429580001
 21
-18.833455566061119
 31
0.0
 12
74.907945102254061
 22
-18.853121910339361
 32
0.0
 13
74.907945102254061
 23
-18.853121910339361
 33
0.0
210
0.0
220
0.0
230
-1.0
  0
SOLID
  5
2050
  8
SAPA_FOGBAND
  6
CONTINUOUS
 10
-75.150651852117846
 20
-18.853121910339361
 30
0.0
 11
-75.13766721411001
 21
-18.858682256592349
 31
0.0
 12
-74.917067425613652
 22
-18.858682256592349
 32
0.0
 13
-74.917067425613652
 23
-18.858682256592349
 33
0.0
210
0.0
220
0.0
230
1.0
  0
SOLID
  5
2051
  8
SAPA_FOGBAND
  6
CONTINUOUS
 10
75.150651852117846
 20
-18.853121910339361
 30
0.0
 11
74.907945102254061
 21
-18.853121910339361
 31
0.0
 12
74.917067425613652
 22
-18.858682256592349
 32
0.0
 13
74.917067425613652
 23
-18.858682256592349
 33
0.0
210
0.0
220
0.0
230
-1.0
  0
SOLID
  5
2052
  8
SAPA_FOGBAND
  6
CONTINUOUS
 10
-75.13766721411001
 20
-18.858682256592349
 30
0.0
 11
-75.106095983645574
 21
-18.872201845887719
 31
0.0
 12
-74.953314847271983
 22
-18.872201845887719
 32
0.0
 13
-74.953314847271983
 23
-18.872201845887719
 33
0.0
210
0.0
220
0.0
230
1.0
  0
SOLID
  5
2053
  8
SAPA_FOGBAND
  6
CONTINUOUS
 10
75.13766721411001
 20
-18.858682256592349
 30
0.0
 11
74.917067425613652
 21
-18.858682256592349
 31
0.0
 12
74.953314847271983
 22
-18.872201845887719
 32
0.0
 13
74.953314847271983
 23
-18.872201845887719
 33
0.0
210
0.0
220
0.0
230
-1.0
  0
SOLID
  5
2054
  8
SAPA_FOGBAND
  6
CONTINUOUS
 10
-75.106095983645574
 20
-18.872201845887719
 30
0.0
 11
-75.090380558077726
 21
-18.875620527462221
 31
0.0
 12
-74.962480687286714
 22
-18.875620527462221
 32
0.0
 13
-74.962480687286714
 23
-18.875620527462221
 33
0.0
210
0.0
220
0.0
230
1.0
  0
SOLID
  5
2055
  8
SAPA_FOGBAND
  6
CONTINUOUS
 10
75.106095983645574
 20
-18.872201845887719
 30
0.0
 11
74.953314847271983
 21
-18.872201845887719
 31
0.0
 12
74.962480687286714
 22
-18.875620527462221
 32
0.0
 13
74.962480687286714
 23
-18.875620527462221
 33
0.0
210
0.0
220
0.0
230
-1.0
  0
SOLID
  5
2056
  8
SAPA_FOGBAND
  6
CONTINUOUS
 10
-75.090380558077726
 20
-18.875620527462221
 30
0.0
 11
-75.058734396216337
 21
-18.88250472859264
 31
0.0
 12
-75.00341950837776
 22
-18.88250472859264
 32
0.0
 13
-75.00341950837776
 23
-18.88250472859264
 33
0.0
210
0.0
220
0.0
230
1.0
  0
SOLID
  5
2057
  8
SAPA_FOGBAND
  6
CONTINUOUS
 10
75.090380558077726
 20
-18.875620527462221
 30
0.0
 11
74.962480687286714
 21
-18.875620527462221
 31
0.0
 12
75.00341950837776
 22
-18.88250472859264
 32
0.0
 13
75.00341950837776
 23
-18.88250472859264
 33
0.0
210
0.0
220
0.0
230
-1.0
  0
SOLID
  5
2058
  8
SAPA_FOGBAND
  6
CONTINUOUS
 10
75.058734396216337
 20
-18.88250472859264
 30
0.0
 11
75.00341950837776
 21
-18.88250472859264
 31
0.0
 12
75.01027886099925
 22
-18.883658185429269
 32
0.0
 13
75.01027886099925
 23
-18.883658185429269
 33
0.0
210
0.0
220
0.0
230
-1.0
  0
LINE
  5
2059
  8
SAPA_FOGBAND
  6
CONTINUOUS
 10
-75.022399609151762
 20
-18.37447802340532
 30
0.0
 11
-75.070745376996641
 21
-18.377935780964481
 31
0.0
  0
LINE
  5
205A
  8
SAPA_FOGBAND
  6
CONTINUOUS
 10
-74.993480042048674
 20
-18.377935780964481
 30
0.0
 11
-75.022399609151762
 21
-18.37447802340532
 31
0.0
  0
LINE
  5
205B
  8
SAPA_FOGBAND
  6
CONTINUOUS
 10
-75.070745376996641
 20
-18.377935780964481
 30
0.0
 11
-75.079315911465073
 21
-18.380232248754009
 31
0.0
  0
LINE
  5
205C
  8
SAPA_FOGBAND
  6
CONTINUOUS
 10
-74.993480042048674
 20
-18.377935780964481
 30
0.0
 11
-74.974273127392919
 21
-18.380232248754009
 31
0.0
  0
LINE
  5
205D
  8
SAPA_FOGBAND
  6
CONTINUOUS
 10
-75.079315911465073
 20
-18.380232248754009
 30
0.0
 11
-75.117563088913954
 21
-18.3904805490642
 31
0.0
  0
LINE
  5
205E
  8
SAPA_FOGBAND
  6
CONTINUOUS
 10
-74.974273127392919
 20
-18.380232248754009
 30
0.0
 11
-74.942213653597463
 21
-18.3904805490642
 31
0.0
  0
LINE
  5
205F
  8
SAPA_FOGBAND
  6
CONTINUOUS
 10
-75.117563088913954
 20
-18.3904805490642
 30
0.0
 11
-75.12684718473453
 21
-18.394990484313951
 31
0.0
  0
LINE
  5
2060
  8
SAPA_FOGBAND
  6
CONTINUOUS
 10
-74.942213653597463
 20
-18.3904805490642
 30
0.0
 11
-74.928105348163186
 21
-18.394990484313951
 31
0.0
  0
LINE
  5
2061
  8
SAPA_FOGBAND
  6
CONTINUOUS
 10
-75.12684718473453
 20
-18.394990484313951
 30
0.0
 11
-75.16116063081266
 21
-18.41165892710028
 31
0.0
  0
LINE
  5
2062
  8
SAPA_FOGBAND
  6
CONTINUOUS
 10
-74.928105348163186
 20
-18.394990484313951
 30
0.0
 11
-74.897579374342172
 21
-18.41165892710028
 31
0.0
  0
LINE
  5
2063
  8
SAPA_FOGBAND
  6
CONTINUOUS
 10
-75.16116063081266
 20
-18.41165892710028
 30
0.0
 11
-75.169924301763686
 21
-18.4182193289998
 31
0.0
  0
LINE
  5
2064
  8
SAPA_FOGBAND
  6
CONTINUOUS
 10
-74.897579374342172
 20
-18.41165892710028
 30
0.0
 11
-74.885564895292902
 21
-18.4182193289998
 31
0.0
  0
LINE
  5
2065
  8
SAPA_FOGBAND
  6
CONTINUOUS
 10
-75.169924301763686
 20
-18.4182193289998
 30
0.0
 11
-75.199962273936237
 21
-18.440705473310761
 31
0.0
  0
LINE
  5
2066
  8
SAPA_FOGBAND
  6
CONTINUOUS
 10
-74.885564895292902
 20
-18.4182193289998
 30
0.0
 11
-74.858331069479249
 21
-18.440705473310761
 31
0.0
  0
LINE
  5
2067
  8
SAPA_FOGBAND
  6
CONTINUOUS
 10
-75.199962273936237
 20
-18.440705473310761
 30
0.0
 11
-75.207574524976422
 21
-18.449079231842461
 31
0.0
  0
LINE
  5
2068
  8
SAPA_FOGBAND
  6
CONTINUOUS
 10
-74.858331069479249
 20
-18.440705473310761
 30
0.0
 11
-74.848189291586877
 21
-18.449079231842461
 31
0.0
  0
LINE
  5
2069
  8
SAPA_FOGBAND
  6
CONTINUOUS
 10
-75.207574524976422
 20
-18.449079231842461
 30
0.0
 11
-75.232565625805535
 21
-18.476570369835581
 31
0.0
  0
LINE
  5
206A
  8
SAPA_FOGBAND
  6
CONTINUOUS
 10
-74.848189291586877
 20
-18.449079231842461
 30
0.0
 11
-74.825490692410412
 21
-18.476570369835581
 31
0.0
  0
LINE
  5
206B
  8
SAPA_FOGBAND
  6
CONTINUOUS
 10
-75.232565625805535
 20
-18.476570369835581
 30
0.0
 11
-75.238590522065294
 21
-18.486454835548479
 31
0.0
  0
LINE
  5
206C
  8
SAPA_FOGBAND
  6
CONTINUOUS
 10
-74.825490692410412
 20
-18.476570369835581
 30
0.0
 11
-74.817329388744227
 21
-18.486454835548479
 31
0.0
  0
LINE
  5
206D
  8
SAPA_FOGBAND
  6
CONTINUOUS
 10
-75.238590522065294
 20
-18.486454835548479
 30
0.0
 11
-75.257792316336761
 21
-18.517957365869229
 31
0.0
  0
LINE
  5
206E
  8
SAPA_FOGBAND
  6
CONTINUOUS
 10
-74.817329388744227
 20
-18.486454835548479
 30
0.0
 11
-74.800127705765817
 21
-18.517957365869229
 31
0.0
  0
LINE
  5
206F
  8
SAPA_FOGBAND
  6
CONTINUOUS
 10
-75.257792316336761
 20
-18.517957365869229
 30
0.0
 11
-75.261909248596126
 21
-18.528995288418759
 31
0.0
  0
LINE
  5
2070
  8
SAPA_FOGBAND
  6
CONTINUOUS
 10
-74.800127705765817
 20
-18.517957365869229
 30
0.0
 11
-74.794100544058367
 21
-18.528995288418759
 31
0.0
  0
LINE
  5
2071
  8
SAPA_FOGBAND
  6
CONTINUOUS
 10
-75.261909248596126
 20
-18.528995288418759
 30
0.0
 11
-75.274730587206648
 21
-18.563370627542309
 31
0.0
  0
LINE
  5
2072
  8
SAPA_FOGBAND
  6
CONTINUOUS
 10
-74.794100544058367
 20
-18.528995288418759
 30
0.0
 11
-74.783111942035433
 21
-18.563370627542309
 31
0.0
  0
LINE
  5
2073
  8
SAPA_FOGBAND
  6
CONTINUOUS
 10
-75.274730587206648
 20
-18.563370627542309
 30
0.0
 11
-75.276713583476351
 21
-18.5751630676485
 31
0.0
  0
LINE
  5
2074
  8
SAPA_FOGBAND
  6
CONTINUOUS
 10
-74.783111942035433
 20
-18.563370627542309
 30
0.0
 11
-74.779342308498428
 21
-18.5751630676485
 31
0.0
  0
LINE
  5
2075
  8
SAPA_FOGBAND
  6
CONTINUOUS
 10
-75.276713583476351
 20
-18.5751630676485
 30
0.0
 11
-75.282768245173685
 21
-18.611168801254841
 31
0.0
  0
LINE
  5
2076
  8
SAPA_FOGBAND
  6
CONTINUOUS
 10
-74.779342308498428
 20
-18.5751630676485
 30
0.0
 11
-74.7750372960096
 21
-18.611168801254841
 31
0.0
  0
LINE
  5
2077
  8
SAPA_FOGBAND
  6
CONTINUOUS
 10
-75.282768245173685
 20
-18.611168801254841
 30
0.0
 11
-75.282479717562566
 21
-18.62328954940735
 31
0.0
  0
LINE
  5
2078
  8
SAPA_FOGBAND
  6
CONTINUOUS
 10
-74.7750372960096
 20
-18.611168801254841
 30
0.0
 11
-74.773588083149747
 21
-18.62328954940735
 31
0.0
  0
LINE
  5
2079
  8
SAPA_FOGBAND
  6
CONTINUOUS
 10
-75.282479717562566
 20
-18.62328954940735
 30
0.0
 11
-75.281614788337052
 21
-18.659624336471921
 31
0.0
  0
LINE
  5
207A
  8
SAPA_FOGBAND
  6
CONTINUOUS
 10
-74.773588083149747
 20
-18.62328954940735
 30
0.0
 11
-74.776186798409285
 21
-18.659624336471921
 31
0.0
  0
LINE
  5
207B
  8
SAPA_FOGBAND
  6
CONTINUOUS
 10
-75.281614788337052
 20
-18.659624336471921
 30
0.0
 11
-75.279001959399764
 21
-18.671635317252221
 31
0.0
  0
LINE
  5
207C
  8
SAPA_FOGBAND
  6
CONTINUOUS
 10
-74.776186798409285
 20
-18.659624336471921
 30
0.0
 11
-74.777045840708908
 21
-18.671635317252221
 31
0.0
  0
LINE
  5
207D
  8
SAPA_FOGBAND
  6
CONTINUOUS
 10
-75.279001959399764
 20
-18.671635317252221
 30
0.0
 11
-75.271311905632132
 21
-18.706985923901151
 31
0.0
  0
LINE
  5
207E
  8
SAPA_FOGBAND
  6
CONTINUOUS
 10
-74.777045840708908
 20
-18.671635317252221
 30
0.0
 11
-74.786518007212436
 21
-18.706985923901151
 31
0.0
  0
LINE
  5
207F
  8
SAPA_FOGBAND
  6
CONTINUOUS
 10
-75.271311905632132
 20
-18.706985923901151
 30
0.0
 11
-75.266401404794664
 21
-18.718453029169531
 31
0.0
  0
LINE
  5
2080
  8
SAPA_FOGBAND
  6
CONTINUOUS
 10
-74.786518007212436
 20
-18.706985923901151
 30
0.0
 11
-74.789590608808624
 21
-18.718453029169531
 31
0.0
  0
LINE
  5
2081
  8
SAPA_FOGBAND
  6
CONTINUOUS
 10
-75.266401404794664
 20
-18.718453029169531
 30
0.0
 11
-75.25223197008377
 21
-18.75154179237343
 31
0.0
  0
LINE
  5
2082
  8
SAPA_FOGBAND
  6
CONTINUOUS
 10
-74.789590608808624
 20
-18.718453029169531
 30
0.0
 11
-74.8056641373921
 21
-18.75154179237343
 31
0.0
  0
LINE
  5
2083
  8
SAPA_FOGBAND
  6
CONTINUOUS
 10
-75.25223197008377
 20
-18.75154179237343
 30
0.0
 11
-75.245119423469134
 21
-18.76205057106824
 31
0.0
  0
LINE
  5
2084
  8
SAPA_FOGBAND
  6
CONTINUOUS
 10
-74.8056641373921
 20
-18.75154179237343
 30
0.0
 11
-74.810768986844693
 21
-18.76205057106824
 31
0.0
  0
LINE
  5
2085
  8
SAPA_FOGBAND
  6
CONTINUOUS
 10
-75.245119423469134
 20
-18.76205057106824
 30
0.0
 11
-75.225064580274989
 21
-18.791681576712971
 31
0.0
  0
LINE
  5
2086
  8
SAPA_FOGBAND
  6
CONTINUOUS
 10
-74.810768986844693
 20
-18.76205057106824
 30
0.0
 11
-74.832950479828938
 21
-18.791681576712971
 31
0.0
  0
LINE
  5
2087
  8
SAPA_FOGBAND
  6
CONTINUOUS
 10
-75.225064580274989
 20
-18.791681576712971
 30
0.0
 11
-75.215893942796129
 21
-18.800852214191821
 31
0.0
  0
LINE
  5
2088
  8
SAPA_FOGBAND
  6
CONTINUOUS
 10
-74.832950479828938
 20
-18.791681576712971
 30
0.0
 11
-74.839815533055173
 21
-18.800852214191821
 31
0.0
  0
LINE
  5
2089
  8
SAPA_FOGBAND
  6
CONTINUOUS
 10
-75.215893942796129
 20
-18.800852214191821
 30
0.0
 11
-75.190791636457391
 21
-18.825954520530559
 31
0.0
  0
LINE
  5
208A
  8
SAPA_FOGBAND
  6
CONTINUOUS
 10
-74.839815533055173
 20
-18.800852214191821
 30
0.0
 11
-74.867429001234242
 21
-18.825954520530559
 31
0.0
  0
LINE
  5
208B
  8
SAPA_FOGBAND
  6
CONTINUOUS
 10
-75.190791636457391
 20
-18.825954520530559
 30
0.0
 11
-75.179708851101992
 21
-18.833455566061119
 31
0.0
  0
LINE
  5
208C
  8
SAPA_FOGBAND
  6
CONTINUOUS
 10
-74.867429001234242
 20
-18.825954520530559
 30
0.0
 11
-74.875680429580001
 21
-18.833455566061119
 31
0.0
  0
LINE
  5
208D
  8
SAPA_FOGBAND
  6
CONTINUOUS
 10
-75.179708851101992
 20
-18.833455566061119
 30
0.0
 11
-75.150651852117846
 21
-18.853121910339361
 31
0.0
  0
LINE
  5
208E
  8
SAPA_FOGBAND
  6
CONTINUOUS
 10
-74.875680429580001
 20
-18.833455566061119
 30
0.0
 11
-74.907945102254061
 21
-18.853121910339361
 31
0.0
  0
LINE
  5
208F
  8
SAPA_FOGBAND
  6
CONTINUOUS
 10
-75.150651852117846
 20
-18.853121910339361
 30
0.0
 11
-75.13766721411001
 21
-18.858682256592349
 31
0.0
  0
LINE
  5
2090
  8
SAPA_FOGBAND
  6
CONTINUOUS
 10
-74.907945102254061
 20
-18.853121910339361
 30
0.0
 11
-74.917067425613652
 21
-18.858682256592349
 31
0.0
  0
LINE
  5
2091
  8
SAPA_FOGBAND
  6
CONTINUOUS
 10
-75.13766721411001
 20
-18.858682256592349
 30
0.0
 11
-75.106095983645574
 21
-18.872201845887719
 31
0.0
  0
LINE
  5
2092
  8
SAPA_FOGBAND
  6
CONTINUOUS
 10
-74.917067425613652
 20
-18.858682256592349
 30
0.0
 11
-74.953314847271983
 21
-18.872201845887719
 31
0.0
  0
LINE
  5
2093
  8
SAPA_FOGBAND
  6
CONTINUOUS
 10
-75.106095983645574
 20
-18.872201845887719
 30
0.0
 11
-75.090380558077726
 21
-18.875620527462221
 31
0.0
  0
LINE
  5
2094
  8
SAPA_FOGBAND
  6
CONTINUOUS
 10
-74.953314847271983
 20
-18.872201845887719
 30
0.0
 11
-74.962480687286714
 21
-18.875620527462221
 31
0.0
  0
LINE
  5
2095
  8
SAPA_FOGBAND
  6
CONTINUOUS
 10
-75.090380558077726
 20
-18.875620527462221
 30
0.0
 11
-75.058734396216337
 21
-18.88250472859264
 31
0.0
  0
LINE
  5
2096
  8
SAPA_FOGBAND
  6
CONTINUOUS
 10
-74.962480687286714
 20
-18.875620527462221
 30
0.0
 11
-75.00341950837776
 21
-18.88250472859264
 31
0.0
  0
LINE
  5
2097
  8
SAPA_FOGBAND
  6
CONTINUOUS
 10
-75.00341950837776
 20
-18.88250472859264
 30
0.0
 11
-75.01027886099925
 21
-18.883658185429269
 31
0.0
  0
LINE
  5
2098
  8
SAPA_FOGBAND
  6
CONTINUOUS
 10
-75.01027886099925
 20
-18.883658185429269
 30
0.0
 11
-75.058734396216337
 21
-18.88250472859264
 31
0.0
  0
ENDBLK
  5
209A
  8
0
  0
BLOCK
  8
0
  2
*U113
 70
     1
 10
0.0
 20
0.0
 30
0.0
  3
*U113
  1

  0
SOLID
  5
21AF
  8
SAPA_FOGBAND
  6
CONTINUOUS
 10
-75.02846685536008
 20
18.884307771293681
 30
0.0
 11
-75.208744419133282
 21
18.809634359387239
 31
0.0
 12
-74.848189291586877
 22
18.809634359387239
 32
0.0
 13
-74.848189291586877
 23
18.809634359387239
 33
0.0
210
0.0
220
0.0
230
1.0
  0
SOLID
  5
21B0
  8
SAPA_FOGBAND
  6
CONTINUOUS
 10
-75.208744419133282
 20
18.809634359387239
 30
0.0
 11
-75.283417831039714
 21
18.62935679561404
 31
0.0
 12
-74.773515879680446
 22
18.62935679561404
 32
0.0
 13
-74.773515879680446
 23
18.62935679561404
 33
0.0
210
0.0
220
0.0
230
1.0
  0
SOLID
  5
21B1
  8
SAPA_FOGBAND
  6
CONTINUOUS
 10
75.208744419133282
 20
18.809634359387239
 30
0.0
 11
74.848189291586877
 21
18.809634359387239
 31
0.0
 12
74.773515879680446
 22
18.62935679561404
 32
0.0
 13
74.773515879680446
 23
18.62935679561404
 33
0.0
210
0.0
220
0.0
230
-1.0
  0
SOLID
  5
21B2
  8
SAPA_FOGBAND
  6
CONTINUOUS
 10
-75.283417831039714
 20
18.62935679561404
 30
0.0
 11
-75.208744419133282
 21
18.449079231840841
 31
0.0
 12
-74.848189291586877
 22
18.449079231840841
 32
0.0
 13
-74.848189291586877
 23
18.449079231840841
 33
0.0
210
0.0
220
0.0
230
1.0
  0
SOLID
  5
21B3
  8
SAPA_FOGBAND
  6
CONTINUOUS
 10
75.283417831039714
 20
18.62935679561404
 30
0.0
 11
74.773515879680446
 21
18.62935679561404
 31
0.0
 12
74.848189291586877
 22
18.449079231840841
 32
0.0
 13
74.848189291586877
 23
18.449079231840841
 33
0.0
210
0.0
220
0.0
230
-1.0
  0
SOLID
  5
21B4
  8
SAPA_FOGBAND
  6
CONTINUOUS
 10
75.208744419133282
 20
18.449079231840841
 30
0.0
 11
74.848189291586877
 21
18.449079231840841
 31
0.0
 12
75.02846685536008
 22
18.374405819934399
 32
0.0
 13
75.02846685536008
 23
18.374405819934399
 33
0.0
210
0.0
220
0.0
230
-1.0
  0
LINE
  5
21B5
  8
SAPA_FOGBAND
  6
CONTINUOUS
 10
-75.02846685536008
 20
18.884307771293681
 30
0.0
 11
-75.208744419133282
 21
18.809634359387239
 31
0.0
  0
LINE
  5
21B6
  8
SAPA_FOGBAND
  6
CONTINUOUS
 10
-74.848189291586877
 20
18.809634359387239
 30
0.0
 11
-75.02846685536008
 21
18.884307771293681
 31
0.0
  0
LINE
  5
21B7
  8
SAPA_FOGBAND
  6
CONTINUOUS
 10
-75.208744419133282
 20
18.809634359387239
 30
0.0
 11
-75.283417831039714
 21
18.62935679561404
 31
0.0
  0
LINE
  5
21B8
  8
SAPA_FOGBAND
  6
CONTINUOUS
 10
-74.848189291586877
 20
18.809634359387239
 30
0.0
 11
-74.773515879680446
 21
18.62935679561404
 31
0.0
  0
LINE
  5
21B9
  8
SAPA_FOGBAND
  6
CONTINUOUS
 10
-75.283417831039714
 20
18.62935679561404
 30
0.0
 11
-75.208744419133282
 21
18.449079231840841
 31
0.0
  0
LINE
  5
21BA
  8
SAPA_FOGBAND
  6
CONTINUOUS
 10
-74.773515879680446
 20
18.62935679561404
 30
0.0
 11
-74.848189291586877
 21
18.449079231840841
 31
0.0
  0
LINE
  5
21BB
  8
SAPA_FOGBAND
  6
CONTINUOUS
 10
-74.848189291586877
 20
18.449079231840841
 30
0.0
 11
-75.02846685536008
 21
18.374405819934399
 31
0.0
  0
LINE
  5
21BC
  8
SAPA_FOGBAND
  6
CONTINUOUS
 10
-75.02846685536008
 20
18.374405819934399
 30
0.0
 11
-75.208744419133282
 21
18.449079231840841
 31
0.0
  0
ENDBLK
  5
21BE
  8
0
  0
BLOCK
  8
0
  2
*U114
 70
     1
 10
0.0
 20
0.0
 30
0.0
  3
*U114
  1

  0
SOLID
  5
21C0
  8
SAPA_FOGBAND
  6
CONTINUOUS
 10
-75.022399609151762
 20
-18.37447802340532
 30
0.0
 11
-75.070745376996641
 21
-18.377935780964481
 31
0.0
 12
-74.993480042048674
 22
-18.377935780964481
 32
0.0
 13
-74.993480042048674
 23
-18.377935780964481
 33
0.0
210
0.0
220
0.0
230
1.0
  0
SOLID
  5
21C1
  8
SAPA_FOGBAND
  6
CONTINUOUS
 10
-75.070745376996641
 20
-18.377935780964481
 30
0.0
 11
-75.079315911465073
 21
-18.380232248754009
 31
0.0
 12
-74.974273127392919
 22
-18.380232248754009
 32
0.0
 13
-74.974273127392919
 23
-18.380232248754009
 33
0.0
210
0.0
220
0.0
230
1.0
  0
SOLID
  5
21C2
  8
SAPA_FOGBAND
  6
CONTINUOUS
 10
75.070745376996641
 20
-18.377935780964481
 30
0.0
 11
74.993480042048674
 21
-18.377935780964481
 31
0.0
 12
74.974273127392919
 22
-18.380232248754009
 32
0.0
 13
74.974273127392919
 23
-18.380232248754009
 33
0.0
210
0.0
220
0.0
230
-1.0
  0
SOLID
  5
21C3
  8
SAPA_FOGBAND
  6
CONTINUOUS
 10
-75.079315911465073
 20
-18.380232248754009
 30
0.0
 11
-75.117563088913954
 21
-18.3904805490642
 31
0.0
 12
-74.942213653597463
 22
-18.3904805490642
 32
0.0
 13
-74.942213653597463
 23
-18.3904805490642
 33
0.0
210
0.0
220
0.0
230
1.0
  0
SOLID
  5
21C4
  8
SAPA_FOGBAND
  6
CONTINUOUS
 10
75.079315911465073
 20
-18.380232248754009
 30
0.0
 11
74.974273127392919
 21
-18.380232248754009
 31
0.0
 12
74.942213653597463
 22
-18.3904805490642
 32
0.0
 13
74.942213653597463
 23
-18.3904805490642
 33
0.0
210
0.0
220
0.0
230
-1.0
  0
SOLID
  5
21C5
  8
SAPA_FOGBAND
  6
CONTINUOUS
 10
-75.117563088913954
 20
-18.3904805490642
 30
0.0
 11
-75.12684718473453
 21
-18.394990484313951
 31
0.0
 12
-74.928105348163186
 22
-18.394990484313951
 32
0.0
 13
-74.928105348163186
 23
-18.394990484313951
 33
0.0
210
0.0
220
0.0
230
1.0
  0
SOLID
  5
21C6
  8
SAPA_FOGBAND
  6
CONTINUOUS
 10
75.117563088913954
 20
-18.3904805490642
 30
0.0
 11
74.942213653597463
 21
-18.3904805490642
 31
0.0
 12
74.928105348163186
 22
-18.394990484313951
 32
0.0
 13
74.928105348163186
 23
-18.394990484313951
 33
0.0
210
0.0
220
0.0
230
-1.0
  0
SOLID
  5
21C7
  8
SAPA_FOGBAND
  6
CONTINUOUS
 10
-75.12684718473453
 20
-18.394990484313951
 30
0.0
 11
-75.16116063081266
 21
-18.41165892710028
 31
0.0
 12
-74.897579374342172
 22
-18.41165892710028
 32
0.0
 13
-74.897579374342172
 23
-18.41165892710028
 33
0.0
210
0.0
220
0.0
230
1.0
  0
SOLID
  5
21C8
  8
SAPA_FOGBAND
  6
CONTINUOUS
 10
75.12684718473453
 20
-18.394990484313951
 30
0.0
 11
74.928105348163186
 21
-18.394990484313951
 31
0.0
 12
74.897579374342172
 22
-18.41165892710028
 32
0.0
 13
74.897579374342172
 23
-18.41165892710028
 33
0.0
210
0.0
220
0.0
230
-1.0
  0
SOLID
  5
21C9
  8
SAPA_FOGBAND
  6
CONTINUOUS
 10
-75.16116063081266
 20
-18.41165892710028
 30
0.0
 11
-75.169924301763686
 21
-18.4182193289998
 31
0.0
 12
-74.885564895292902
 22
-18.4182193289998
 32
0.0
 13
-74.885564895292902
 23
-18.4182193289998
 33
0.0
210
0.0
220
0.0
230
1.0
  0
SOLID
  5
21CA
  8
SAPA_FOGBAND
  6
CONTINUOUS
 10
75.16116063081266
 20
-18.41165892710028
 30
0.0
 11
74.897579374342172
 21
-18.41165892710028
 31
0.0
 12
74.885564895292902
 22
-18.4182193289998
 32
0.0
 13
74.885564895292902
 23
-18.4182193289998
 33
0.0
210
0.0
220
0.0
230
-1.0
  0
SOLID
  5
21CB
  8
SAPA_FOGBAND
  6
CONTINUOUS
 10
-75.169924301763686
 20
-18.4182193289998
 30
0.0
 11
-75.199962273936237
 21
-18.440705473310761
 31
0.0
 12
-74.858331069479249
 22
-18.440705473310761
 32
0.0
 13
-74.858331069479249
 23
-18.440705473310761
 33
0.0
210
0.0
220
0.0
230
1.0
  0
SOLID
  5
21CC
  8
SAPA_FOGBAND
  6
CONTINUOUS
 10
75.169924301763686
 20
-18.4182193289998
 30
0.0
 11
74.885564895292902
 21
-18.4182193289998
 31
0.0
 12
74.858331069479249
 22
-18.440705473310761
 32
0.0
 13
74.858331069479249
 23
-18.440705473310761
 33
0.0
210
0.0
220
0.0
230
-1.0
  0
SOLID
  5
21CD
  8
SAPA_FOGBAND
  6
CONTINUOUS
 10
-75.199962273936237
 20
-18.440705473310761
 30
0.0
 11
-75.207574524976422
 21
-18.449079231842461
 31
0.0
 12
-74.848189291586877
 22
-18.449079231842461
 32
0.0
 13
-74.848189291586877
 23
-18.449079231842461
 33
0.0
  0
SOLID
  5
21CE
  8
SAPA_FOGBAND
  6
CONTINUOUS
 10
75.199962273936237
 20
-18.440705473310761
 30
0.0
 11
74.858331069479249
 21
-18.440705473310761
 31
0.0
 12
74.848189291586877
 22
-18.449079231842461
 32
0.0
 13
74.848189291586877
 23
-18.449079231842461
 33
0.0
210
0.0
220
0.0
230
-1.0
  0
SOLID
  5
21CF
  8
SAPA_FOGBAND
  6
CONTINUOUS
 10
-75.207574524976422
 20
-18.449079231842461
 30
0.0
 11
-75.232565625805535
 21
-18.476570369835581
 31
0.0
 12
-74.825490692410412
 22
-18.476570369835581
 32
0.0
 13
-74.825490692410412
 23
-18.476570369835581
 33
0.0
  0
SOLID
  5
21D0
  8
SAPA_FOGBAND
  6
CONTINUOUS
 10
75.207574524976422
 20
-18.449079231842461
 30
0.0
 11
74.848189291586877
 21
-18.449079231842461
 31
0.0
 12
74.825490692410412
 22
-18.476570369835581
 32
0.0
 13
74.825490692410412
 23
-18.476570369835581
 33
0.0
210
0.0
220
0.0
230
-1.0
  0
SOLID
  5
21D1
  8
SAPA_FOGBAND
  6
CONTINUOUS
 10
-75.232565625805535
 20
-18.476570369835581
 30
0.0
 11
-75.238590522065294
 21
-18.486454835548479
 31
0.0
 12
-74.817329388744227
 22
-18.486454835548479
 32
0.0
 13
-74.817329388744227
 23
-18.486454835548479
 33
0.0
210
0.0
220
0.0
230
1.0
  0
SOLID
  5
21D2
  8
SAPA_FOGBAND
  6
CONTINUOUS
 10
75.232565625805535
 20
-18.476570369835581
 30
0.0
 11
74.825490692410412
 21
-18.476570369835581
 31
0.0
 12
74.817329388744227
 22
-18.486454835548479
 32
0.0
 13
74.817329388744227
 23
-18.486454835548479
 33
0.0
210
0.0
220
0.0
230
-1.0
  0
SOLID
  5
21D3
  8
SAPA_FOGBAND
  6
CONTINUOUS
 10
-75.238590522065294
 20
-18.486454835548479
 30
0.0
 11
-75.257792316336761
 21
-18.517957365869229
 31
0.0
 12
-74.800127705765817
 22
-18.517957365869229
 32
0.0
 13
-74.800127705765817
 23
-18.517957365869229
 33
0.0
210
0.0
220
0.0
230
1.0
  0
SOLID
  5
21D4
  8
SAPA_FOGBAND
  6
CONTINUOUS
 10
75.238590522065294
 20
-18.486454835548479
 30
0.0
 11
74.817329388744227
 21
-18.486454835548479
 31
0.0
 12
74.800127705765817
 22
-18.517957365869229
 32
0.0
 13
74.800127705765817
 23
-18.517957365869229
 33
0.0
210
0.0
220
0.0
230
-1.0
  0
SOLID
  5
21D5
  8
SAPA_FOGBAND
  6
CONTINUOUS
 10
-75.257792316336761
 20
-18.517957365869229
 30
0.0
 11
-75.261909248596126
 21
-18.528995288418759
 31
0.0
 12
-74.794100544058367
 22
-18.528995288418759
 32
0.0
 13
-74.794100544058367
 23
-18.528995288418759
 33
0.0
210
0.0
220
0.0
230
1.0
  0
SOLID
  5
21D6
  8
SAPA_FOGBAND
  6
CONTINUOUS
 10
75.257792316336761
 20
-18.517957365869229
 30
0.0
 11
74.800127705765817
 21
-18.517957365869229
 31
0.0
 12
74.794100544058367
 22
-18.528995288418759
 32
0.0
 13
74.794100544058367
 23
-18.528995288418759
 33
0.0
210
0.0
220
0.0
230
-1.0
  0
SOLID
  5
21D7
  8
SAPA_FOGBAND
  6
CONTINUOUS
 10
-75.261909248596126
 20
-18.528995288418759
 30
0.0
 11
-75.274730587206648
 21
-18.563370627542309
 31
0.0
 12
-74.783111942035433
 22
-18.563370627542309
 32
0.0
 13
-74.783111942035433
 23
-18.563370627542309
 33
0.0
210
0.0
220
0.0
230
1.0
  0
SOLID
  5
21D8
  8
SAPA_FOGBAND
  6
CONTINUOUS
 10
75.261909248596126
 20
-18.528995288418759
 30
0.0
 11
74.794100544058367
 21
-18.528995288418759
 31
0.0
 12
74.783111942035433
 22
-18.563370627542309
 32
0.0
 13
74.783111942035433
 23
-18.563370627542309
 33
0.0
210
0.0
220
0.0
230
-1.0
  0
SOLID
  5
21D9
  8
SAPA_FOGBAND
  6
CONTINUOUS
 10
-75.274730587206648
 20
-18.563370627542309
 30
0.0
 11
-75.276713583476351
 21
-18.5751630676485
 31
0.0
 12
-74.779342308498428
 22
-18.5751630676485
 32
0.0
 13
-74.779342308498428
 23
-18.5751630676485
 33
0.0
210
0.0
220
0.0
230
1.0
  0
SOLID
  5
21DA
  8
SAPA_FOGBAND
  6
CONTINUOUS
 10
75.274730587206648
 20
-18.563370627542309
 30
0.0
 11
74.783111942035433
 21
-18.563370627542309
 31
0.0
 12
74.779342308498428
 22
-18.5751630676485
 32
0.0
 13
74.779342308498428
 23
-18.5751630676485
 33
0.0
210
0.0
220
0.0
230
-1.0
  0
SOLID
  5
21DB
  8
SAPA_FOGBAND
  6
CONTINUOUS
 10
-75.276713583476351
 20
-18.5751630676485
 30
0.0
 11
-75.282768245173685
 21
-18.611168801254841
 31
0.0
 12
-74.7750372960096
 22
-18.611168801254841
 32
0.0
 13
-74.7750372960096
 23
-18.611168801254841
 33
0.0
210
0.0
220
0.0
230
1.0
  0
SOLID
  5
21DC
  8
SAPA_FOGBAND
  6
CONTINUOUS
 10
75.276713583476351
 20
-18.5751630676485
 30
0.0
 11
74.779342308498428
 21
-18.5751630676485
 31
0.0
 12
74.7750372960096
 22
-18.611168801254841
 32
0.0
 13
74.7750372960096
 23
-18.611168801254841
 33
0.0
210
0.0
220
0.0
230
-1.0
  0
SOLID
  5
21DD
  8
SAPA_FOGBAND
  6
CONTINUOUS
 10
-75.282768245173685
 20
-18.611168801254841
 30
0.0
 11
-75.282479717562566
 21
-18.62328954940735
 31
0.0
 12
-74.773588083149747
 22
-18.62328954940735
 32
0.0
 13
-74.773588083149747
 23
-18.62328954940735
 33
0.0
210
0.0
220
0.0
230
1.0
  0
SOLID
  5
21DE
  8
SAPA_FOGBAND
  6
CONTINUOUS
 10
75.282768245173685
 20
-18.611168801254841
 30
0.0
 11
74.7750372960096
 21
-18.611168801254841
 31
0.0
 12
74.773588083149747
 22
-18.62328954940735
 32
0.0
 13
74.773588083149747
 23
-18.62328954940735
 33
0.0
210
0.0
220
0.0
230
-1.0
  0
SOLID
  5
21DF
  8
SAPA_FOGBAND
  6
CONTINUOUS
 10
-75.282479717562566
 20
-18.62328954940735
 30
0.0
 11
-75.281614788337052
 21
-18.659624336471921
 31
0.0
 12
-74.776186798409285
 22
-18.659624336471921
 32
0.0
 13
-74.776186798409285
 23
-18.659624336471921
 33
0.0
210
0.0
220
0.0
230
1.0
  0
SOLID
  5
21E0
  8
SAPA_FOGBAND
  6
CONTINUOUS
 10
75.282479717562566
 20
-18.62328954940735
 30
0.0
 11
74.773588083149747
 21
-18.62328954940735
 31
0.0
 12
74.776186798409285
 22
-18.659624336471921
 32
0.0
 13
74.776186798409285
 23
-18.659624336471921
 33
0.0
210
0.0
220
0.0
230
-1.0
  0
SOLID
  5
21E1
  8
SAPA_FOGBAND
  6
CONTINUOUS
 10
-75.281614788337052
 20
-18.659624336471921
 30
0.0
 11
-75.279001959399764
 21
-18.671635317252221
 31
0.0
 12
-74.777045840708908
 22
-18.671635317252221
 32
0.0
 13
-74.777045840708908
 23
-18.671635317252221
 33
0.0
210
0.0
220
0.0
230
1.0
  0
SOLID
  5
21E2
  8
SAPA_FOGBAND
  6
CONTINUOUS
 10
75.281614788337052
 20
-18.659624336471921
 30
0.0
 11
74.776186798409285
 21
-18.659624336471921
 31
0.0
 12
74.777045840708908
 22
-18.671635317252221
 32
0.0
 13
74.777045840708908
 23
-18.671635317252221
 33
0.0
210
0.0
220
0.0
230
-1.0
  0
SOLID
  5
21E3
  8
SAPA_FOGBAND
  6
CONTINUOUS
 10
-75.279001959399764
 20
-18.671635317252221
 30
0.0
 11
-75.271311905632132
 21
-18.706985923901151
 31
0.0
 12
-74.786518007212436
 22
-18.706985923901151
 32
0.0
 13
-74.786518007212436
 23
-18.706985923901151
 33
0.0
210
0.0
220
0.0
230
1.0
  0
SOLID
  5
21E4
  8
SAPA_FOGBAND
  6
CONTINUOUS
 10
75.279001959399764
 20
-18.671635317252221
 30
0.0
 11
74.777045840708908
 21
-18.671635317252221
 31
0.0
 12
74.786518007212436
 22
-18.706985923901151
 32
0.0
 13
74.786518007212436
 23
-18.706985923901151
 33
0.0
210
0.0
220
0.0
230
-1.0
  0
SOLID
  5
21E5
  8
SAPA_FOGBAND
  6
CONTINUOUS
 10
-75.271311905632132
 20
-18.706985923901151
 30
0.0
 11
-75.266401404794664
 21
-18.718453029169531
 31
0.0
 12
-74.789590608808624
 22
-18.718453029169531
 32
0.0
 13
-74.789590608808624
 23
-18.718453029169531
 33
0.0
210
0.0
220
0.0
230
1.0
  0
SOLID
  5
21E6
  8
SAPA_FOGBAND
  6
CONTINUOUS
 10
75.271311905632132
 20
-18.706985923901151
 30
0.0
 11
74.786518007212436
 21
-18.706985923901151
 31
0.0
 12
74.789590608808624
 22
-18.718453029169531
 32
0.0
 13
74.789590608808624
 23
-18.718453029169531
 33
0.0
210
0.0
220
0.0
230
-1.0
  0
SOLID
  5
21E7
  8
SAPA_FOGBAND
  6
CONTINUOUS
 10
-75.266401404794664
 20
-18.718453029169531
 30
0.0
 11
-75.25223197008377
 21
-18.75154179237343
 31
0.0
 12
-74.8056641373921
 22
-18.75154179237343
 32
0.0
 13
-74.8056641373921
 23
-18.75154179237343
 33
0.0
210
0.0
220
0.0
230
1.0
  0
SOLID
  5
21E8
  8
SAPA_FOGBAND
  6
CONTINUOUS
 10
75.266401404794664
 20
-18.718453029169531
 30
0.0
 11
74.789590608808624
 21
-18.718453029169531
 31
0.0
 12
74.8056641373921
 22
-18.75154179237343
 32
0.0
 13
74.8056641373921
 23
-18.75154179237343
 33
0.0
210
0.0
220
0.0
230
-1.0
  0
SOLID
  5
21E9
  8
SAPA_FOGBAND
  6
CONTINUOUS
 10
-75.25223197008377
 20
-18.75154179237343
 30
0.0
 11
-75.245119423469134
 21
-18.76205057106824
 31
0.0
 12
-74.810768986844693
 22
-18.76205057106824
 32
0.0
 13
-74.810768986844693
 23
-18.76205057106824
 33
0.0
210
0.0
220
0.0
230
1.0
  0
SOLID
  5
21EA
  8
SAPA_FOGBAND
  6
CONTINUOUS
 10
75.25223197008377
 20
-18.75154179237343
 30
0.0
 11
74.8056641373921
 21
-18.75154179237343
 31
0.0
 12
74.810768986844693
 22
-18.76205057106824
 32
0.0
 13
74.810768986844693
 23
-18.76205057106824
 33
0.0
210
0.0
220
0.0
230
-1.0
  0
SOLID
  5
21EB
  8
SAPA_FOGBAND
  6
CONTINUOUS
 10
-75.245119423469134
 20
-18.76205057106824
 30
0.0
 11
-75.225064580274989
 21
-18.791681576712971
 31
0.0
 12
-74.832950479828938
 22
-18.791681576712971
 32
0.0
 13
-74.832950479828938
 23
-18.791681576712971
 33
0.0
  0
SOLID
  5
21EC
  8
SAPA_FOGBAND
  6
CONTINUOUS
 10
75.245119423469134
 20
-18.76205057106824
 30
0.0
 11
74.810768986844693
 21
-18.76205057106824
 31
0.0
 12
74.832950479828938
 22
-18.791681576712971
 32
0.0
 13
74.832950479828938
 23
-18.791681576712971
 33
0.0
210
0.0
220
0.0
230
-1.0
  0
SOLID
  5
21ED
  8
SAPA_FOGBAND
  6
CONTINUOUS
 10
-75.225064580274989
 20
-18.791681576712971
 30
0.0
 11
-75.215893942796129
 21
-18.800852214191821
 31
0.0
 12
-74.839815533055173
 22
-18.800852214191821
 32
0.0
 13
-74.839815533055173
 23
-18.800852214191821
 33
0.0
210
0.0
220
0.0
230
1.0
  0
SOLID
  5
21EE
  8
SAPA_FOGBAND
  6
CONTINUOUS
 10
75.225064580274989
 20
-18.791681576712971
 30
0.0
 11
74.832950479828938
 21
-18.791681576712971
 31
0.0
 12
74.839815533055173
 22
-18.800852214191821
 32
0.0
 13
74.839815533055173
 23
-18.800852214191821
 33
0.0
210
0.0
220
0.0
230
-1.0
  0
SOLID
  5
21EF
  8
SAPA_FOGBAND
  6
CONTINUOUS
 10
-75.215893942796129
 20
-18.800852214191821
 30
0.0
 11
-75.190791636457391
 21
-18.825954520530559
 31
0.0
 12
-74.867429001234242
 22
-18.825954520530559
 32
0.0
 13
-74.867429001234242
 23
-18.825954520530559
 33
0.0
210
0.0
220
0.0
230
1.0
  0
SOLID
  5
21F0
  8
SAPA_FOGBAND
  6
CONTINUOUS
 10
75.215893942796129
 20
-18.800852214191821
 30
0.0
 11
74.839815533055173
 21
-18.800852214191821
 31
0.0
 12
74.867429001234242
 22
-18.825954520530559
 32
0.0
 13
74.867429001234242
 23
-18.825954520530559
 33
0.0
210
0.0
220
0.0
230
-1.0
  0
SOLID
  5
21F1
  8
SAPA_FOGBAND
  6
CONTINUOUS
 10
-75.190791636457391
 20
-18.825954520530559
 30
0.0
 11
-75.179708851101992
 21
-18.833455566061119
 31
0.0
 12
-74.875680429580001
 22
-18.833455566061119
 32
0.0
 13
-74.875680429580001
 23
-18.833455566061119
 33
0.0
210
0.0
220
0.0
230
1.0
  0
SOLID
  5
21F2
  8
SAPA_FOGBAND
  6
CONTINUOUS
 10
75.190791636457391
 20
-18.825954520530559
 30
0.0
 11
74.867429001234242
 21
-18.825954520530559
 31
0.0
 12
74.875680429580001
 22
-18.833455566061119
 32
0.0
 13
74.875680429580001
 23
-18.833455566061119
 33
0.0
210
0.0
220
0.0
230
-1.0
  0
SOLID
  5
21F3
  8
SAPA_FOGBAND
  6
CONTINUOUS
 10
-75.179708851101992
 20
-18.833455566061119
 30
0.0
 11
-75.150651852117846
 21
-18.853121910339361
 31
0.0
 12
-74.907945102254061
 22
-18.853121910339361
 32
0.0
 13
-74.907945102254061
 23
-18.853121910339361
 33
0.0
  0
SOLID
  5
21F4
  8
SAPA_FOGBAND
  6
CONTINUOUS
 10
75.179708851101992
 20
-18.833455566061119
 30
0.0
 11
74.875680429580001
 21
-18.833455566061119
 31
0.0
 12
74.907945102254061
 22
-18.853121910339361
 32
0.0
 13
74.907945102254061
 23
-18.853121910339361
 33
0.0
210
0.0
220
0.0
230
-1.0
  0
SOLID
  5
21F5
  8
SAPA_FOGBAND
  6
CONTINUOUS
 10
-75.150651852117846
 20
-18.853121910339361
 30
0.0
 11
-75.13766721411001
 21
-18.858682256592349
 31
0.0
 12
-74.917067425613652
 22
-18.858682256592349
 32
0.0
 13
-74.917067425613652
 23
-18.858682256592349
 33
0.0
210
0.0
220
0.0
230
1.0
  0
SOLID
  5
21F6
  8
SAPA_FOGBAND
  6
CONTINUOUS
 10
75.150651852117846
 20
-18.853121910339361
 30
0.0
 11
74.907945102254061
 21
-18.853121910339361
 31
0.0
 12
74.917067425613652
 22
-18.858682256592349
 32
0.0
 13
74.917067425613652
 23
-18.858682256592349
 33
0.0
210
0.0
220
0.0
230
-1.0
  0
SOLID
  5
21F7
  8
SAPA_FOGBAND
  6
CONTINUOUS
 10
-75.13766721411001
 20
-18.858682256592349
 30
0.0
 11
-75.106095983645574
 21
-18.872201845887719
 31
0.0
 12
-74.953314847271983
 22
-18.872201845887719
 32
0.0
 13
-74.953314847271983
 23
-18.872201845887719
 33
0.0
210
0.0
220
0.0
230
1.0
  0
SOLID
  5
21F8
  8
SAPA_FOGBAND
  6
CONTINUOUS
 10
75.13766721411001
 20
-18.858682256592349
 30
0.0
 11
74.917067425613652
 21
-18.858682256592349
 31
0.0
 12
74.953314847271983
 22
-18.872201845887719
 32
0.0
 13
74.953314847271983
 23
-18.872201845887719
 33
0.0
210
0.0
220
0.0
230
-1.0
  0
SOLID
  5
21F9
  8
SAPA_FOGBAND
  6
CONTINUOUS
 10
-75.106095983645574
 20
-18.872201845887719
 30
0.0
 11
-75.090380558077726
 21
-18.875620527462221
 31
0.0
 12
-74.962480687286714
 22
-18.875620527462221
 32
0.0
 13
-74.962480687286714
 23
-18.875620527462221
 33
0.0
210
0.0
220
0.0
230
1.0
  0
SOLID
  5
21FA
  8
SAPA_FOGBAND
  6
CONTINUOUS
 10
75.106095983645574
 20
-18.872201845887719
 30
0.0
 11
74.953314847271983
 21
-18.872201845887719
 31
0.0
 12
74.962480687286714
 22
-18.875620527462221
 32
0.0
 13
74.962480687286714
 23
-18.875620527462221
 33
0.0
210
0.0
220
0.0
230
-1.0
  0
SOLID
  5
21FB
  8
SAPA_FOGBAND
  6
CONTINUOUS
 10
-75.090380558077726
 20
-18.875620527462221
 30
0.0
 11
-75.058734396216337
 21
-18.88250472859264
 31
0.0
 12
-75.00341950837776
 22
-18.88250472859264
 32
0.0
 13
-75.00341950837776
 23
-18.88250472859264
 33
0.0
210
0.0
220
0.0
230
1.0
  0
SOLID
  5
21FC
  8
SAPA_FOGBAND
  6
CONTINUOUS
 10
75.090380558077726
 20
-18.875620527462221
 30
0.0
 11
74.962480687286714
 21
-18.875620527462221
 31
0.0
 12
75.00341950837776
 22
-18.88250472859264
 32
0.0
 13
75.00341950837776
 23
-18.88250472859264
 33
0.0
210
0.0
220
0.0
230
-1.0
  0
SOLID
  5
21FD
  8
SAPA_FOGBAND
  6
CONTINUOUS
 10
75.058734396216337
 20
-18.88250472859264
 30
0.0
 11
75.00341950837776
 21
-18.88250472859264
 31
0.0
 12
75.01027886099925
 22
-18.883658185429269
 32
0.0
 13
75.01027886099925
 23
-18.883658185429269
 33
0.0
210
0.0
220
0.0
230
-1.0
  0
LINE
  5
21FE
  8
SAPA_FOGBAND
  6
CONTINUOUS
 10
-75.022399609151762
 20
-18.37447802340532
 30
0.0
 11
-75.070745376996641
 21
-18.377935780964481
 31
0.0
  0
LINE
  5
21FF
  8
SAPA_FOGBAND
  6
CONTINUOUS
 10
-74.993480042048674
 20
-18.377935780964481
 30
0.0
 11
-75.022399609151762
 21
-18.37447802340532
 31
0.0
  0
LINE
  5
2200
  8
SAPA_FOGBAND
  6
CONTINUOUS
 10
-75.070745376996641
 20
-18.377935780964481
 30
0.0
 11
-75.079315911465073
 21
-18.380232248754009
 31
0.0
  0
LINE
  5
2201
  8
SAPA_FOGBAND
  6
CONTINUOUS
 10
-74.993480042048674
 20
-18.377935780964481
 30
0.0
 11
-74.974273127392919
 21
-18.380232248754009
 31
0.0
  0
LINE
  5
2202
  8
SAPA_FOGBAND
  6
CONTINUOUS
 10
-75.079315911465073
 20
-18.380232248754009
 30
0.0
 11
-75.117563088913954
 21
-18.3904805490642
 31
0.0
  0
LINE
  5
2203
  8
SAPA_FOGBAND
  6
CONTINUOUS
 10
-74.974273127392919
 20
-18.380232248754009
 30
0.0
 11
-74.942213653597463
 21
-18.3904805490642
 31
0.0
  0
LINE
  5
2204
  8
SAPA_FOGBAND
  6
CONTINUOUS
 10
-75.117563088913954
 20
-18.3904805490642
 30
0.0
 11
-75.12684718473453
 21
-18.394990484313951
 31
0.0
  0
LINE
  5
2205
  8
SAPA_FOGBAND
  6
CONTINUOUS
 10
-74.942213653597463
 20
-18.3904805490642
 30
0.0
 11
-74.928105348163186
 21
-18.394990484313951
 31
0.0
  0
LINE
  5
2206
  8
SAPA_FOGBAND
  6
CONTINUOUS
 10
-75.12684718473453
 20
-18.394990484313951
 30
0.0
 11
-75.16116063081266
 21
-18.41165892710028
 31
0.0
  0
LINE
  5
2207
  8
SAPA_FOGBAND
  6
CONTINUOUS
 10
-74.928105348163186
 20
-18.394990484313951
 30
0.0
 11
-74.897579374342172
 21
-18.41165892710028
 31
0.0
  0
LINE
  5
2208
  8
SAPA_FOGBAND
  6
CONTINUOUS
 10
-75.16116063081266
 20
-18.41165892710028
 30
0.0
 11
-75.169924301763686
 21
-18.4182193289998
 31
0.0
  0
LINE
  5
2209
  8
SAPA_FOGBAND
  6
CONTINUOUS
 10
-74.897579374342172
 20
-18.41165892710028
 30
0.0
 11
-74.885564895292902
 21
-18.4182193289998
 31
0.0
  0
LINE
  5
220A
  8
SAPA_FOGBAND
  6
CONTINUOUS
 10
-75.169924301763686
 20
-18.4182193289998
 30
0.0
 11
-75.199962273936237
 21
-18.440705473310761
 31
0.0
  0
LINE
  5
220B
  8
SAPA_FOGBAND
  6
CONTINUOUS
 10
-74.885564895292902
 20
-18.4182193289998
 30
0.0
 11
-74.858331069479249
 21
-18.440705473310761
 31
0.0
  0
LINE
  5
220C
  8
SAPA_FOGBAND
  6
CONTINUOUS
 10
-75.199962273936237
 20
-18.440705473310761
 30
0.0
 11
-75.207574524976422
 21
-18.449079231842461
 31
0.0
  0
LINE
  5
220D
  8
SAPA_FOGBAND
  6
CONTINUOUS
 10
-74.858331069479249
 20
-18.440705473310761
 30
0.0
 11
-74.848189291586877
 21
-18.449079231842461
 31
0.0
  0
LINE
  5
220E
  8
SAPA_FOGBAND
  6
CONTINUOUS
 10
-75.207574524976422
 20
-18.449079231842461
 30
0.0
 11
-75.232565625805535
 21
-18.476570369835581
 31
0.0
  0
LINE
  5
220F
  8
SAPA_FOGBAND
  6
CONTINUOUS
 10
-74.848189291586877
 20
-18.449079231842461
 30
0.0
 11
-74.825490692410412
 21
-18.476570369835581
 31
0.0
  0
LINE
  5
2210
  8
SAPA_FOGBAND
  6
CONTINUOUS
 10
-75.232565625805535
 20
-18.476570369835581
 30
0.0
 11
-75.238590522065294
 21
-18.486454835548479
 31
0.0
  0
LINE
  5
2211
  8
SAPA_FOGBAND
  6
CONTINUOUS
 10
-74.825490692410412
 20
-18.476570369835581
 30
0.0
 11
-74.817329388744227
 21
-18.486454835548479
 31
0.0
  0
LINE
  5
2212
  8
SAPA_FOGBAND
  6
CONTINUOUS
 10
-75.238590522065294
 20
-18.486454835548479
 30
0.0
 11
-75.257792316336761
 21
-18.517957365869229
 31
0.0
  0
LINE
  5
2213
  8
SAPA_FOGBAND
  6
CONTINUOUS
 10
-74.817329388744227
 20
-18.486454835548479
 30
0.0
 11
-74.800127705765817
 21
-18.517957365869229
 31
0.0
  0
LINE
  5
2214
  8
SAPA_FOGBAND
  6
CONTINUOUS
 10
-75.257792316336761
 20
-18.517957365869229
 30
0.0
 11
-75.261909248596126
 21
-18.528995288418759
 31
0.0
  0
LINE
  5
2215
  8
SAPA_FOGBAND
  6
CONTINUOUS
 10
-74.800127705765817
 20
-18.517957365869229
 30
0.0
 11
-74.794100544058367
 21
-18.528995288418759
 31
0.0
  0
LINE
  5
2216
  8
SAPA_FOGBAND
  6
CONTINUOUS
 10
-75.261909248596126
 20
-18.528995288418759
 30
0.0
 11
-75.274730587206648
 21
-18.563370627542309
 31
0.0
  0
LINE
  5
2217
  8
SAPA_FOGBAND
  6
CONTINUOUS
 10
-74.794100544058367
 20
-18.528995288418759
 30
0.0
 11
-74.783111942035433
 21
-18.563370627542309
 31
0.0
  0
LINE
  5
2218
  8
SAPA_FOGBAND
  6
CONTINUOUS
 10
-75.274730587206648
 20
-18.563370627542309
 30
0.0
 11
-75.276713583476351
 21
-18.5751630676485
 31
0.0
  0
LINE
  5
2219
  8
SAPA_FOGBAND
  6
CONTINUOUS
 10
-74.783111942035433
 20
-18.563370627542309
 30
0.0
 11
-74.779342308498428
 21
-18.5751630676485
 31
0.0
  0
LINE
  5
221A
  8
SAPA_FOGBAND
  6
CONTINUOUS
 10
-75.276713583476351
 20
-18.5751630676485
 30
0.0
 11
-75.282768245173685
 21
-18.611168801254841
 31
0.0
  0
LINE
  5
221B
  8
SAPA_FOGBAND
  6
CONTINUOUS
 10
-74.779342308498428
 20
-18.5751630676485
 30
0.0
 11
-74.7750372960096
 21
-18.611168801254841
 31
0.0
  0
LINE
  5
221C
  8
SAPA_FOGBAND
  6
CONTINUOUS
 10
-75.282768245173685
 20
-18.611168801254841
 30
0.0
 11
-75.282479717562566
 21
-18.62328954940735
 31
0.0
  0
LINE
  5
221D
  8
SAPA_FOGBAND
  6
CONTINUOUS
 10
-74.7750372960096
 20
-18.611168801254841
 30
0.0
 11
-74.773588083149747
 21
-18.62328954940735
 31
0.0
  0
LINE
  5
221E
  8
SAPA_FOGBAND
  6
CONTINUOUS
 10
-75.282479717562566
 20
-18.62328954940735
 30
0.0
 11
-75.281614788337052
 21
-18.659624336471921
 31
0.0
  0
LINE
  5
221F
  8
SAPA_FOGBAND
  6
CONTINUOUS
 10
-74.773588083149747
 20
-18.62328954940735
 30
0.0
 11
-74.776186798409285
 21
-18.659624336471921
 31
0.0
  0
LINE
  5
2220
  8
SAPA_FOGBAND
  6
CONTINUOUS
 10
-75.281614788337052
 20
-18.659624336471921
 30
0.0
 11
-75.279001959399764
 21
-18.671635317252221
 31
0.0
  0
LINE
  5
2221
  8
SAPA_FOGBAND
  6
CONTINUOUS
 10
-74.776186798409285
 20
-18.659624336471921
 30
0.0
 11
-74.777045840708908
 21
-18.671635317252221
 31
0.0
  0
LINE
  5
2222
  8
SAPA_FOGBAND
  6
CONTINUOUS
 10
-75.279001959399764
 20
-18.671635317252221
 30
0.0
 11
-75.271311905632132
 21
-18.706985923901151
 31
0.0
  0
LINE
  5
2223
  8
SAPA_FOGBAND
  6
CONTINUOUS
 10
-74.777045840708908
 20
-18.671635317252221
 30
0.0
 11
-74.786518007212436
 21
-18.706985923901151
 31
0.0
  0
LINE
  5
2224
  8
SAPA_FOGBAND
  6
CONTINUOUS
 10
-75.271311905632132
 20
-18.706985923901151
 30
0.0
 11
-75.266401404794664
 21
-18.718453029169531
 31
0.0
  0
LINE
  5
2225
  8
SAPA_FOGBAND
  6
CONTINUOUS
 10
-74.786518007212436
 20
-18.706985923901151
 30
0.0
 11
-74.789590608808624
 21
-18.718453029169531
 31
0.0
  0
LINE
  5
2226
  8
SAPA_FOGBAND
  6
CONTINUOUS
 10
-75.266401404794664
 20
-18.718453029169531
 30
0.0
 11
-75.25223197008377
 21
-18.75154179237343
 31
0.0
  0
LINE
  5
2227
  8
SAPA_FOGBAND
  6
CONTINUOUS
 10
-74.789590608808624
 20
-18.718453029169531
 30
0.0
 11
-74.8056641373921
 21
-18.75154179237343
 31
0.0
  0
LINE
  5
2228
  8
SAPA_FOGBAND
  6
CONTINUOUS
 10
-75.25223197008377
 20
-18.75154179237343
 30
0.0
 11
-75.245119423469134
 21
-18.76205057106824
 31
0.0
  0
LINE
  5
2229
  8
SAPA_FOGBAND
  6
CONTINUOUS
 10
-74.8056641373921
 20
-18.75154179237343
 30
0.0
 11
-74.810768986844693
 21
-18.76205057106824
 31
0.0
  0
LINE
  5
222A
  8
SAPA_FOGBAND
  6
CONTINUOUS
 10
-75.245119423469134
 20
-18.76205057106824
 30
0.0
 11
-75.225064580274989
 21
-18.791681576712971
 31
0.0
  0
LINE
  5
222B
  8
SAPA_FOGBAND
  6
CONTINUOUS
 10
-74.810768986844693
 20
-18.76205057106824
 30
0.0
 11
-74.832950479828938
 21
-18.791681576712971
 31
0.0
  0
LINE
  5
222C
  8
SAPA_FOGBAND
  6
CONTINUOUS
 10
-75.225064580274989
 20
-18.791681576712971
 30
0.0
 11
-75.215893942796129
 21
-18.800852214191821
 31
0.0
  0
LINE
  5
222D
  8
SAPA_FOGBAND
  6
CONTINUOUS
 10
-74.832950479828938
 20
-18.791681576712971
 30
0.0
 11
-74.839815533055173
 21
-18.800852214191821
 31
0.0
  0
LINE
  5
222E
  8
SAPA_FOGBAND
  6
CONTINUOUS
 10
-75.215893942796129
 20
-18.800852214191821
 30
0.0
 11
-75.190791636457391
 21
-18.825954520530559
 31
0.0
  0
LINE
  5
222F
  8
SAPA_FOGBAND
  6
CONTINUOUS
 10
-74.839815533055173
 20
-18.800852214191821
 30
0.0
 11
-74.867429001234242
 21
-18.825954520530559
 31
0.0
  0
LINE
  5
2230
  8
SAPA_FOGBAND
  6
CONTINUOUS
 10
-75.190791636457391
 20
-18.825954520530559
 30
0.0
 11
-75.179708851101992
 21
-18.833455566061119
 31
0.0
  0
LINE
  5
2231
  8
SAPA_FOGBAND
  6
CONTINUOUS
 10
-74.867429001234242
 20
-18.825954520530559
 30
0.0
 11
-74.875680429580001
 21
-18.833455566061119
 31
0.0
  0
LINE
  5
2232
  8
SAPA_FOGBAND
  6
CONTINUOUS
 10
-75.179708851101992
 20
-18.833455566061119
 30
0.0
 11
-75.150651852117846
 21
-18.853121910339361
 31
0.0
  0
LINE
  5
2233
  8
SAPA_FOGBAND
  6
CONTINUOUS
 10
-74.875680429580001
 20
-18.833455566061119
 30
0.0
 11
-74.907945102254061
 21
-18.853121910339361
 31
0.0
  0
LINE
  5
2234
  8
SAPA_FOGBAND
  6
CONTINUOUS
 10
-75.150651852117846
 20
-18.853121910339361
 30
0.0
 11
-75.13766721411001
 21
-18.858682256592349
 31
0.0
  0
LINE
  5
2235
  8
SAPA_FOGBAND
  6
CONTINUOUS
 10
-74.907945102254061
 20
-18.853121910339361
 30
0.0
 11
-74.917067425613652
 21
-18.858682256592349
 31
0.0
  0
LINE
  5
2236
  8
SAPA_FOGBAND
  6
CONTINUOUS
 10
-75.13766721411001
 20
-18.858682256592349
 30
0.0
 11
-75.106095983645574
 21
-18.872201845887719
 31
0.0
  0
LINE
  5
2237
  8
SAPA_FOGBAND
  6
CONTINUOUS
 10
-74.917067425613652
 20
-18.858682256592349
 30
0.0
 11
-74.953314847271983
 21
-18.872201845887719
 31
0.0
  0
LINE
  5
2238
  8
SAPA_FOGBAND
  6
CONTINUOUS
 10
-75.106095983645574
 20
-18.872201845887719
 30
0.0
 11
-75.090380558077726
 21
-18.875620527462221
 31
0.0
  0
LINE
  5
2239
  8
SAPA_FOGBAND
  6
CONTINUOUS
 10
-74.953314847271983
 20
-18.872201845887719
 30
0.0
 11
-74.962480687286714
 21
-18.875620527462221
 31
0.0
  0
LINE
  5
223A
  8
SAPA_FOGBAND
  6
CONTINUOUS
 10
-75.090380558077726
 20
-18.875620527462221
 30
0.0
 11
-75.058734396216337
 21
-18.88250472859264
 31
0.0
  0
LINE
  5
223B
  8
SAPA_FOGBAND
  6
CONTINUOUS
 10
-74.962480687286714
 20
-18.875620527462221
 30
0.0
 11
-75.00341950837776
 21
-18.88250472859264
 31
0.0
  0
LINE
  5
223C
  8
SAPA_FOGBAND
  6
CONTINUOUS
 10
-75.00341950837776
 20
-18.88250472859264
 30
0.0
 11
-75.01027886099925
 21
-18.883658185429269
 31
0.0
  0
LINE
  5
223D
  8
SAPA_FOGBAND
  6
CONTINUOUS
 10
-75.01027886099925
 20
-18.883658185429269
 30
0.0
 11
-75.058734396216337
 21
-18.88250472859264
 31
0.0
  0
ENDBLK
  5
223F
  8
0
  0
ENDSEC
  0
SECTION
  2
ENTITIES
  0
LINE
  5
71A
  8
SAPA_ANSLUTNING
 10
6.7714506977628233
 20
145.7053740952349
 30
0.0
 11
-3.1241354187370791
 21
172.89327350258841
 31
0.0
  0
LINE
  5
72D
  8
SAPA_ANSLUTNING
 10
-69.749999999011735
 20
22.588611451517611
 30
0.0
 11
-69.749999999011735
 21
32.588611451517608
 31
0.0
  0
LINE
  5
739
  8
SAPA_ANSLUTNING
 10
-70.499999999011621
 20
32.588611451517608
 30
0.0
 11
-68.999999999011592
 21
32.588611451517608
 31
0.0
  0
LINE
  5
73B
  8
SAPA_PROFIL
 10
-19.902403935072439
 20
134.20085978403591
 30
0.0
 11
-5.5251068370480807
 21
139.4337679769186
 31
0.0
  0
LINE
  5
73C
  8
SAPA_PROFIL
 10
-11.35190035193072
 20
110.7085442643881
 30
0.0
 11
2.7434889598579022
 21
115.83884641427311
 31
0.0
  0
LINE
  5
73D
  8
SAPA_PROFIL
  6
DASHED
 10
-64.485004885441086
 20
52.303400019622863
 30
0.0
 11
-1.9135529358627279
 21
114.94501436337001
 31
0.0
  0
LINE
  5
73E
  8
SAPA_PROFIL
 10
-63.77750199226395
 20
51.596689572448071
 30
0.0
 11
-1.2060500426855969
 21
114.23830391619521
 31
0.0
  0
LINE
  5
73F
  8
SAPA_PROFIL
 10
-70.852530924035221
 20
58.663794044196003
 30
0.0
 11
-8.281078974456884
 21
121.3054083879431
 31
0.0
  0
LINE
  5
740
  8
SAPA_PROFIL
 10
-11.35190035193072
 20
110.7085442643881
 30
0.0
 11
-19.902403935072439
 21
134.20085978403591
 31
0.0
  0
LINE
  5
741
  8
SAPA_PROFIL
 10
-8.2810789744568787
 20
121.3054083879431
 30
0.0
 11
-1.206050042685594
 21
114.23830391619521
 31
0.0
  0
LINE
  5
746
  8
SAPA_ANSLUTNING
 10
-13.7144647485342
 20
138.24911065108881
 30
0.0
 11
-39.30699190657046
 21
159.7237907502915
 31
0.0
  0
LINE
  5
747
  8
SAPA_ANSLUTNING
 10
-45.108346831606688
 20
126.8226720347877
 30
0.0
 11
-39.30699190657046
 21
159.72379075029161
 31
0.0
  0
LINE
  5
748
  8
SAPA_ANSLUTNING
 10
-45.108346831606688
 20
126.8226720347877
 30
0.0
 11
-70.700873989642957
 21
148.2973521339905
 31
0.0
  0
LINE
  5
749
  8
SAPA_ANSLUTNING
 10
-76.502228914679193
 20
115.3962334184867
 30
0.0
 11
-70.700873989642957
 21
148.2973521339905
 31
0.0
  0
INSERT
  5
74B
  8
0
  2
*U67
 10
0.0
 20
0.0
 30
0.0
  0
INSERT
  5
74C
  8
0
  2
*U68
 10
0.0
 20
0.0
 30
0.0
  0
POLYLINE
  5
7D6
  8
SAPA_LIGHT
 66
     1
 10
0.0
 20
0.0
 30
0.0
 70
     1
  0
VERTEX
  5
1147
  8
SAPA_LIGHT
 10
14.03015368960534
 20
84.828989928338444
 30
0.0
  0
VERTEX
  5
1148
  8
SAPA_LIGHT
 10
-5.8070146232838438
 20
139.33116193392209
 30
0.0
  0
VERTEX
  5
1149
  8
SAPA_LIGHT
 10
12.986837792433439
 20
146.17156480043511
 30
0.0
  0
VERTEX
  5
114A
  8
SAPA_LIGHT
 10
2.000990090988668
 20
176.35493329372201
 30
0.0
  0
VERTEX
  5
114B
  8
SAPA_LIGHT
 10
-13.877632502638001
 20
170.57558730849519
 30
0.0
  0
VERTEX
  5
114C
  8
SAPA_LIGHT
 10
-17.940671107522132
 20
181.73869412978709
 30
0.0
  0
VERTEX
  5
114D
  8
SAPA_LIGHT
 10
23.21350028759165
 20
196.7175875334982
 30
0.0
  0
VERTEX
  5
114E
  8
SAPA_LIGHT
 10
27.276538892476079
 20
185.55448071220599
 30
0.0
  0
VERTEX
  5
114F
  8
SAPA_LIGHT
 10
11.397916298848481
 20
179.77513472697879
 30
0.0
  0
VERTEX
  5
1150
  8
SAPA_LIGHT
 10
20.55037533424354
 20
154.62896019474749
 30
0.0
  0
VERTEX
  5
1151
  8
SAPA_LIGHT
 10
39.344227749962073
 20
161.46936306126099
 30
0.0
  0
VERTEX
  5
1152
  8
SAPA_LIGHT
 10
61.014784728900928
 20
101.9299970946219
 30
0.0
  0
SEQEND
  5
1153
  8
SAPA_LIGHT
  0
POLYLINE
  5
7D7
  8
SAPA_LIGHT
 66
     1
 10
0.0
 20
0.0
 30
0.0
  0
VERTEX
  5
1154
  8
SAPA_LIGHT
 10
54.379309682535528
 20
166.94168535447159
 30
0.0
  0
VERTEX
  5
1155
  8
SAPA_LIGHT
 10
26.188531058959281
 20
156.68108105470029
 30
0.0
  0
VERTEX
  5
1156
  8
SAPA_LIGHT
 10
17.036072023563889
 20
181.82725558693281
 30
0.0
  0
VERTEX
  5
1157
  8
SAPA_LIGHT
 10
45.226850647140651
 20
192.08785988670269
 30
0.0
  0
SEQEND
  5
1158
  8
SAPA_LIGHT
  0
INSERT
  5
7DA
  8
0
  2
*U69
 10
0.0
 20
0.0
 30
0.0
  0
POLYLINE
  5
938
  8
SAPA_ANSLUTNING
 66
     1
 10
0.0
 20
0.0
 30
0.0
 70
     1
  0
VERTEX
  5
115D
  8
SAPA_ANSLUTNING
 10
-35.500000000001279
 20
25.000000000000188
 30
0.0
  0
VERTEX
  5
115E
  8
SAPA_ANSLUTNING
 10
-68.999999999011706
 20
25.000000000000188
 30
0.0
  0
VERTEX
  5
115F
  8
SAPA_ANSLUTNING
 10
-68.999999999011706
 20
7.0349218599862438
 30
0.0
  0
VERTEX
  5
1160
  8
SAPA_ANSLUTNING
 10
-35.500000000001279
 20
7.0349218599862438
 30
0.0
  0
SEQEND
  5
1161
  8
SAPA_ANSLUTNING
  0
LINE
  5
940
  8
SAPA_ANSLUTNING
 10
-68.999999999011706
 20
7.0349218599862438
 30
0.0
 11
-35.500000000001279
 21
25.000000000000188
 31
0.0
  0
LINE
  5
941
  8
SAPA_ANSLUTNING
 10
-35.500000000001279
 20
7.0349218599862438
 30
0.0
 11
-68.999999999011706
 21
25.000000000000188
 31
0.0
  0
LINE
  5
955
  8
SAPA_ANSLUTNING
 10
25.349999999998769
 20
11.44021305710695
 30
0.0
 11
25.349999999998769
 21
21.440213057106948
 31
0.0
  0
ARC
  5
95B
  8
SAPA_ANSLUTNING
 10
21.04556976616999
 20
80.326374818575516
 30
0.0
 40
2.6429365202859709
 50
305.0
 51
124.9999999999999
  0
LINE
  5
95C
  8
SAPA_ANSLUTNING
 10
19.529643655362332
 20
82.491341672093824
 30
0.0
 11
18.54062467404254
 21
81.798823125941226
 31
0.0
  0
LINE
  5
95D
  8
SAPA_ANSLUTNING
 10
22.561495876977641
 20
78.161407965057222
 30
0.0
 11
21.572476895657871
 21
77.468889418904624
 31
0.0
  0
LINE
  5
975
  8
SAPA_ANSLUTNING
 10
18.110442346779259
 20
82.413187159157928
 30
0.0
 11
18.970807001305829
 21
81.184459092724467
 31
0.0
  0
LINE
  5
976
  8
SAPA_ANSLUTNING
 10
21.142294568394579
 20
78.083253452121369
 30
0.0
 11
22.00265922292115
 21
76.854525385687879
 31
0.0
  0
LINE
  5
977
  8
SAPA_ANSLUTNING
 10
11.26471130411424
 20
71.166895191178213
 30
0.0
 11
12.12507595864081
 21
69.938167124744723
 31
0.0
  0
LINE
  5
97C
  8
SAPA_ANSLUTNING
 10
26.099999999998769
 20
21.440213057106948
 30
0.0
 11
24.599999999998762
 21
21.440213057106948
 31
0.0
  0
LINE
  5
97E
  8
SAPA_ANSLUTNING
 10
11.69489363137752
 20
70.552531157961482
 30
0.0
 11
9.9406220204334481
 21
69.324176951911141
 31
0.0
  0
LINE
  5
981
  8
SAPA_ANSLUTNING
 10
-63.20969970436262
 20
39.191814195438582
 30
0.0
 11
-54.238996978996347
 21
43.610693308189511
 31
0.0
  0
LINE
  5
984
  8
SAPA_ANSLUTNING
 10
25.244023646976579
 20
32.059295607516219
 30
0.0
 11
21.445221152490209
 21
41.309652336198859
 31
0.0
  0
LINE
  5
986
  8
SAPA_ANSLUTNING
 10
24.550246892325379
 20
31.774385420429741
 30
0.0
 11
25.937800401627769
 21
32.344205794602701
 31
0.0
  0
LINE
  5
987
  8
SAPA_ANSLUTNING
 10
20.751444397838998
 20
41.024742149112377
 30
0.0
 11
22.138997907141398
 21
41.594562523285333
 31
0.0
  0
LINE
  5
988
  8
SAPA_ANSLUTNING
 10
13.153839408866251
 20
59.525455606477649
 30
0.0
 11
14.54139291816864
 21
60.095275980650591
 31
0.0
  0
LINE
  5
989
  8
SAPA_ANSLUTNING
 10
13.847616163517459
 20
59.810365793564131
 30
0.0
 11
9.9406220204334481
 21
69.324176951911141
 31
0.0
  0
LINE
  5
98A
  8
SAPA_ANSLUTNING
 10
-0.0833646933424473
 20
69.4511652802925
 30
0.0
 11
-0.7461965602550863
 21
70.796770689097443
 31
0.0
  0
LINE
  5
98B
  8
SAPA_ANSLUTNING
 10
-9.0540674187087102
 20
65.032286167541585
 30
0.0
 11
-9.7168992856213485
 21
66.377891576346528
 31
0.0
  0
LINE
  5
98C
  8
SAPA_ANSLUTNING
 10
-26.99547286944124
 20
56.194527942039763
 30
0.0
 11
-27.65830473635388
 21
57.540133350844691
 31
0.0
  0
LINE
  5
98D
  8
SAPA_ANSLUTNING
 10
-35.96617559480751
 20
51.775648829288848
 30
0.0
 11
-36.62900746172015
 21
53.121254238093798
 31
0.0
  0
LINE
  5
98E
  8
SAPA_ANSLUTNING
 10
-53.90758104554002
 20
42.937890603787011
 30
0.0
 11
-54.570412912452667
 21
44.283496012591947
 31
0.0
  0
LINE
  5
98F
  8
SAPA_ANSLUTNING
 10
-62.878283770906279
 20
38.519011491036103
 30
0.0
 11
-63.541115637818912
 21
39.864616899841039
 31
0.0
  0
LINE
  5
990
  8
SAPA_ANSLUTNING
 10
-9.3854833521650356
 20
65.705088871944056
 30
0.0
 11
-0.4147806267987706
 21
70.123967984694971
 31
0.0
  0
LINE
  5
991
  8
SAPA_ANSLUTNING
 10
-36.29759152826383
 20
52.44845153369134
 30
0.0
 11
-27.326888802897571
 21
56.867330646442241
 31
0.0
  0
LINE
  5
993
  8
SAPA_PROFIL
 10
-70.85253092403525
 20
58.663794044196017
 30
0.0
 11
-63.777501992264007
 21
51.596689572448128
 31
0.0
  0
POLYLINE
  5
994
  8
SAPA_ANSLUTNING
 66
     1
 10
0.0
 20
0.0
 30
0.0
 70
     1
1001
ACAD
1000
ASC_BOUNDS
1002
{
1070
    19
1005
9EF
1002
}
  0
VERTEX
  5
1162
  8
SAPA_ANSLUTNING
 10
14.49999999999873
 20
85.000000000000185
 30
0.0
  0
VERTEX
  5
1163
  8
SAPA_ANSLUTNING
 10
32.101154960497837
 20
91.406296494328785
 30
0.0
  0
VERTEX
  5
1164
  8
SAPA_ANSLUTNING
 10
32.614185175486298
 20
89.996757563150027
 30
0.0
  0
VERTEX
  5
1165
  8
SAPA_ANSLUTNING
 10
15.0130302149872
 20
83.590461068821426
 30
0.0
  0
SEQEND
  5
1166
  8
SAPA_ANSLUTNING
  0
INSERT
  5
9EF
  8
SAPA_ANSLUTNING
  6
CONTINUOUS
  2
*X70
 10
0.0
 20
0.0
 30
0.0
1001
ACAD
1000
HATCH
1002
{
1070
    19
1000
ANSI37
1040
0.25
1040
0.0
1000
ASC_BOUNDS
1070
     1
1070
     1
1070
     1
1005
994
1000
ASC_SEEDPOINT
1011
21.298179421930161
1021
9.6624448855087411E+070
1031
1.1042794167622994E+071
1021
86.790419914949794
1031
0.0
1000
R14_HATCH_DATA
1000
9EF
1011
1.0
1021
9.6624448855087411E+070
1031
1.1042794167622994E+071
1021
0.0
1031
0.0
1011
0.0
1021
9.6624448855087411E+070
1031
1.1042794167622994E+071
1021
1.0
1031
0.0
1011
0.0
1021
9.6624448855087411E+070
1031
1.1042794167622994E+071
1021
0.0
1031
1.0
1040
0.0
1010
0.0
1020
0.0
1030
1.0
1000
ANSI37
1070
     0
1070
     1
1071
        1
1071
        7
1070
     0
1070
     1
1071
        4
1040
14.499999999998719
1040
85.000000000000185
1040
15.0130302149872
1040
83.590461068821426
1040
32.614185175486298
1040
89.996757563150027
1040
32.101154960497837
1040
91.406296494328785
1071
        1
1005
994
1070
     0
1070
     1
1040
0.0
1040
0.25
1070
     0
1070
     2
1040
4.2760566673861069
1040
29.82685528660026
1040
114.5230189928083
1040
0.7193818059603409
1040
-0.33545324525668
1070
     0
1040
5.8468529941810043
1040
29.82685528660026
1040
114.5230189928083
1040
0.33545324525668
1040
0.7193818059603409
1070
     0
1040
0.035408065789263
1071
        1
1040
21.298179421930161
1040
86.790419914949794
1040
0.0
1002
}
  0
INSERT
  5
9F0
  8
0
  2
*U71
 10
0.0
 20
0.0
 30
0.0
  0
INSERT
  5
9F1
  8
0
  2
*U72
 10
0.0
 20
0.0
 30
0.0
  0
INSERT
  5
9F2
  8
0
  2
*U73
 10
0.0
 20
0.0
 30
0.0
  0
POLYLINE
  5
A0C
  8
SAPA_ANSLUTNING
 66
     1
 10
0.0
 20
0.0
 30
0.0
  0
VERTEX
  5
119A
  8
SAPA_ANSLUTNING
 10
-68.999999999011592
 20
22.588611451517611
 30
0.0
  0
VERTEX
  5
119B
  8
SAPA_ANSLUTNING
 10
-70.499999999011621
 20
22.5886114515176
 30
0.0
  0
VERTEX
  5
119C
  8
SAPA_ANSLUTNING
 10
-70.49999999901172
 20
36.436739542499673
 30
0.0
  0
VERTEX
  5
119D
  8
SAPA_ANSLUTNING
 10
6.8983637776082762
 20
74.562405226024893
 30
0.0
  0
VERTEX
  5
119E
  8
SAPA_ANSLUTNING
 10
19.099461328099039
 20
83.105705705310555
 30
0.0
 42
-0.9999999999999987
  0
VERTEX
  5
119F
  8
SAPA_ANSLUTNING
 10
22.99167820424093
 20
77.547043931840491
 30
0.0
  0
VERTEX
  5
11A0
  8
SAPA_ANSLUTNING
 10
10.86235403650949
 20
69.053999716205723
 30
0.0
  0
VERTEX
  5
11A1
  8
SAPA_ANSLUTNING
 10
26.099999999998779
 20
31.949238130882751
 30
0.0
  0
VERTEX
  5
11A2
  8
SAPA_ANSLUTNING
 10
26.099999999998769
 20
11.44021305710694
 30
0.0
  0
VERTEX
  5
11A3
  8
SAPA_ANSLUTNING
 10
24.599999999998762
 20
11.44021305710695
 30
0.0
  0
VERTEX
  5
11A4
  8
SAPA_ANSLUTNING
 10
24.599999999998769
 20
31.653233032273889
 30
0.0
  0
VERTEX
  5
11A5
  8
SAPA_ANSLUTNING
 10
9.0188900043574147
 20
69.59435418761656
 30
0.0
  0
VERTEX
  5
11A6
  8
SAPA_ANSLUTNING
 10
22.13131354971436
 20
78.775771998273953
 30
0.0
 42
0.9999999999999987
  0
VERTEX
  5
11A7
  8
SAPA_ANSLUTNING
 10
19.95982598262561
 20
81.876977638877065
 30
0.0
  0
VERTEX
  5
11A8
  8
SAPA_ANSLUTNING
 10
7.6644461324573232
 20
73.267659982637468
 30
0.0
  0
VERTEX
  5
11A9
  8
SAPA_ANSLUTNING
 10
-68.999999999011706
 20
35.503514845709617
 30
0.0
  0
VERTEX
  5
11AA
  8
SAPA_ANSLUTNING
 10
-68.999999999011706
 20
10.999999999996559
 30
0.0
  0
VERTEX
  5
11AB
  8
SAPA_ANSLUTNING
 10
-70.499999999011706
 20
10.999999999996559
 30
0.0
  0
SEQEND
  5
11AC
  8
SAPA_ANSLUTNING
  0
LINE
  5
A0E
  8
SAPA_ANSLUTNING
 10
-105.50222891467919
 20
86.863816089711761
 30
0.0
 11
-76.502228914679193
 21
86.863816089711761
 31
0.0
  0
LINE
  5
A11
  8
SAPA_ANSLUTNING
 10
-76.502228914679193
 20
115.3962334184866
 30
0.0
 11
-105.50222891467919
 21
135.63069482914341
 31
0.0
  0
LINE
  5
A14
  8
SAPA_ANSLUTNING
 10
-85.082632438482364
 20
86.863816089711776
 30
0.0
 11
-105.50222891467919
 21
98.653075611987546
 31
0.0
  0
LINE
  5
A16
  8
SAPA_ANSLUTNING
 10
-76.502228914679193
 20
115.3962334184867
 30
0.0
 11
-105.50222891467919
 21
98.653075611987546
 31
0.0
  0
LINE
  5
A18
  8
SAPA_ANSLUTNING
 10
-0.1050944153577514
 20
164.5985265173957
 30
0.0
 11
-7.913109823497968
 21
171.15022936659261
 31
0.0
  0
LINE
  5
A19
  8
SAPA_ANSLUTNING
 10
-13.7144647485342
 20
138.24911065108881
 30
0.0
 11
-7.913109823497968
 21
171.15022936659261
 31
0.0
  0
POLYLINE
  5
A1A
  8
SAPA_LIGHT
 66
     1
 10
0.0
 20
0.0
 30
0.0
  0
VERTEX
  5
11AD
  8
SAPA_LIGHT
 10
24.499999999998771
 20
25.000000000000149
 30
0.0
  0
VERTEX
  5
11AE
  8
SAPA_LIGHT
 10
24.499999999998771
 20
-24.999999999999861
 30
0.0
  0
VERTEX
  5
11AF
  8
SAPA_LIGHT
 10
-45.499999999010242
 20
-24.99999999999984
 30
0.0
  0
VERTEX
  5
11B0
  8
SAPA_LIGHT
 10
-45.499999999010228
 20
-4.9999999999998401
 30
0.0
  0
VERTEX
  5
11B1
  8
SAPA_LIGHT
 10
-72.499999999011891
 20
-4.9999999999998401
 30
0.0
  0
VERTEX
  5
11B2
  8
SAPA_LIGHT
 10
-72.499999999011891
 20
-24.991488829971491
 30
0.0
  0
VERTEX
  5
11B3
  8
SAPA_LIGHT
 10
-96.501524926813502
 20
-24.991488829971491
 30
0.0
  0
VERTEX
  5
11B4
  8
SAPA_LIGHT
 10
-96.501524926813204
 20
14.368629150101359
 30
0.0
  0
VERTEX
  5
11B5
  8
SAPA_LIGHT
 10
-96.267210351762444
 20
14.934314575050619
 30
0.0
  0
VERTEX
  5
11B6
  8
SAPA_LIGHT
 10
-86.094418145626904
 20
25.107106781186271
 30
0.0
  0
VERTEX
  5
11B7
  8
SAPA_LIGHT
 10
-85.387311364440365
 20
25.399999999999721
 30
0.0
  0
VERTEX
  5
11B8
  8
SAPA_LIGHT
 10
-72.49999999901172
 20
25.39999999999975
 30
0.0
  0
VERTEX
  5
11B9
  8
SAPA_LIGHT
 10
-72.49999999901172
 20
25.000000000000188
 30
0.0
  0
VERTEX
  5
11BA
  8
SAPA_LIGHT
 10
24.499999999998771
 20
25.000000000000401
 30
0.0
  0
SEQEND
  5
11BB
  8
SAPA_LIGHT
  0
POLYLINE
  5
A1B
  8
SAPA_LIGHT
 66
     1
 10
0.0
 20
0.0
 30
0.0
  0
VERTEX
  5
11BC
  8
SAPA_LIGHT
 10
-72.499999999011834
 20
-40.999999999997968
 30
0.0
  0
VERTEX
  5
11BD
  8
SAPA_LIGHT
 10
-72.49999999901182
 20
-10.99999999999797
 30
0.0
  0
VERTEX
  5
11BE
  8
SAPA_LIGHT
 10
-45.499999999010242
 20
-10.99999999999797
 30
0.0
  0
VERTEX
  5
11BF
  8
SAPA_LIGHT
 10
-45.499999999010242
 20
-40.999999999997982
 30
0.0
  0
SEQEND
  5
11C0
  8
SAPA_LIGHT
  0
POLYLINE
  5
A1C
  8
SAPA_ANSLUTNING
 66
     1
 10
0.0
 20
0.0
 30
0.0
 70
     1
  0
VERTEX
  5
11C1
  8
SAPA_ANSLUTNING
 10
33.91810229166181
 20
-3.8777520610466238
 30
0.0
  0
VERTEX
  5
11C2
  8
SAPA_ANSLUTNING
 10
33.918102291661803
 20
91.674311213524689
 30
0.0
  0
VERTEX
  5
11C3
  8
SAPA_ANSLUTNING
 10
52.687575514793288
 20
98.505840779601073
 30
0.0
  0
VERTEX
  5
11C4
  8
SAPA_ANSLUTNING
 10
53.200605729781799
 20
97.096301848422215
 30
0.0
  0
VERTEX
  5
11C5
  8
SAPA_ANSLUTNING
 10
35.41810229166181
 20
90.62399990621013
 30
0.0
  0
VERTEX
  5
11C6
  8
SAPA_ANSLUTNING
 10
35.41810229166181
 20
-3.8777520610466238
 30
0.0
 42
-0.9999999999999998
  0
VERTEX
  5
11C7
  8
SAPA_ANSLUTNING
 10
29.9181022916618
 20
-3.8777520610466238
 30
0.0
  0
VERTEX
  5
11C8
  8
SAPA_ANSLUTNING
 10
29.9181022916618
 20
2.8129672668239509
 30
0.0
  0
VERTEX
  5
11C9
  8
SAPA_ANSLUTNING
 10
31.4181022916618
 20
2.8129672668239509
 30
0.0
  0
VERTEX
  5
11CA
  8
SAPA_ANSLUTNING
 10
31.41810229166181
 20
-3.8777520610466238
 30
0.0
 42
0.9999999999999998
  0
SEQEND
  5
11CB
  8
SAPA_ANSLUTNING
  0
POLYLINE
  5
A1E
  8
SAPA_ANSLUTNING
 66
     1
 10
0.0
 20
0.0
 30
0.0
 70
     1
  0
VERTEX
  5
11CC
  8
SAPA_ANSLUTNING
 10
-119.03448574039579
 20
-1.2740070755909689
 30
0.0
  0
VERTEX
  5
11CD
  8
SAPA_ANSLUTNING
 10
-108.53946649989879
 20
9.2210121649060461
 30
0.0
  0
VERTEX
  5
11CE
  8
SAPA_ANSLUTNING
 10
-109.6001266716785
 20
10.281672336685871
 30
0.0
  0
VERTEX
  5
11CF
  8
SAPA_ANSLUTNING
 10
-120.0951459121756
 20
-0.2133469038111408
 30
0.0
 42
-0.9999999999999998
  0
VERTEX
  5
11D0
  8
SAPA_ANSLUTNING
 10
-122.92357303692179
 20
2.6150802209350732
 30
0.0
  0
VERTEX
  5
11D1
  8
SAPA_ANSLUTNING
 10
-105.50222891467919
 20
20.03642434317765
 30
0.0
  0
VERTEX
  5
11D2
  8
SAPA_ANSLUTNING
 10
-105.50222891467919
 20
135.63069482914341
 30
0.0
  0
VERTEX
  5
11D3
  8
SAPA_ANSLUTNING
 10
-3.1241354187370791
 20
172.89327350258841
 30
0.0
  0
VERTEX
  5
11D4
  8
SAPA_ANSLUTNING
 10
-3.6371656337255689
 20
174.3028124337672
 30
0.0
  0
VERTEX
  5
11D5
  8
SAPA_ANSLUTNING
 10
-107.00222891467919
 20
136.68100613645791
 30
0.0
  0
VERTEX
  5
11D6
  8
SAPA_ANSLUTNING
 10
-107.00222891467919
 20
20.657744686737221
 30
0.0
  0
VERTEX
  5
11D7
  8
SAPA_ANSLUTNING
 10
-123.9842332087016
 20
3.6757403927148462
 30
0.0
 42
0.9999999999999998
  0
SEQEND
  5
11D8
  8
SAPA_ANSLUTNING
  0
POLYLINE
  5
A1F
  8
SAPA_ANSLUTNING
 66
     1
 10
0.0
 20
0.0
 30
0.0
 70
     1
  0
VERTEX
  5
11D9
  8
SAPA_ANSLUTNING
 10
-76.502228914679193
 20
115.3962334184866
 30
0.0
  0
VERTEX
  5
11DA
  8
SAPA_ANSLUTNING
 10
-76.502228914679193
 20
86.863816089711761
 30
0.0
  0
VERTEX
  5
11DB
  8
SAPA_ANSLUTNING
 10
-75.002228914679193
 20
86.863816089711761
 30
0.0
  0
VERTEX
  5
11DC
  8
SAPA_ANSLUTNING
 10
-75.002228914679193
 20
114.345922111172
 30
0.0
  0
VERTEX
  5
11DD
  8
SAPA_ANSLUTNING
 10
7.2844809127512953
 20
144.295835164056
 30
0.0
  0
VERTEX
  5
11DE
  8
SAPA_ANSLUTNING
 10
6.7714506977628091
 20
145.7053740952349
 30
0.0
  0
SEQEND
  5
11DF
  8
SAPA_ANSLUTNING
  0
LINE
  5
CD1
  8
SAPA_PROFIL
 10
4.1121182237556066
 20
70.440953445298106
 30
0.0
 11
5.8177619114586889
 21
67.973002957423873
 31
0.0
  0
LINE
  5
CD2
  8
SAPA_PROFIL
 10
5.8177619114586889
 20
67.973002957423873
 30
0.0
 11
22.270765163953531
 21
79.343960875444424
 31
0.0
  0
LINE
  5
CD3
  8
SAPA_PROFIL
 10
22.270765163953531
 20
79.343960875444424
 30
0.0
 11
20.56512147625045
 21
81.811911363318643
 31
0.0
  0
LINE
  5
CD4
  8
SAPA_PROFIL
 10
20.56512147625045
 20
81.811911363318643
 30
0.0
 11
4.1121182237556066
 21
70.440953445298106
 31
0.0
  0
ARC
  5
CF5
  8
SAPA_FOGBAND
 10
-9.5243130390724033
 20
177.32728854371911
 30
0.0
 40
0.1999999999999002
 50
199.99999999996541
 51
289.9999999999788
  0
LINE
  5
CF6
  8
SAPA_FOGBAND
 10
-9.4559090104073711
 20
177.13935001956199
 30
0.0
 11
-4.8236670381468834
 21
178.8253482153832
 31
0.0
  0
ARC
  5
CF7
  8
SAPA_FOGBAND
 10
-4.4816468948209112
 20
177.8856555945973
 30
0.0
 40
1.0000000000000471
 50
50.34547257927899
 51
110.00000000001749
  0
LINE
  5
CF8
  8
SAPA_FOGBAND
 10
-3.8434899094674249
 20
178.65556186294731
 30
0.0
 11
0.2330374603185064
 21
175.7891824138633
 31
0.0
  0
ARC
  5
CF9
  8
SAPA_FOGBAND
 10
-0.4051195250359134
 20
175.01927614551499
 30
0.0
 40
0.9999999999993287
 50
38.241841344464127
 51
50.345472579175429
  0
ARC
  5
CFA
  8
SAPA_FOGBAND
 10
-0.76017260974599
 20
174.82148629445589
 30
0.0
 40
1.4027691442045509
 50
341.8570766774302
 51
35.609435779333438
  0
ARC
  5
CFB
  8
SAPA_FOGBAND
 10
0.3864095105884366
 20
174.4570556510011
 30
0.0
 40
0.2000000000000569
 50
245.8162306007446
 51
338.78447689250862
  0
LINE
  5
CFC
  8
SAPA_FOGBAND
 10
0.3044765837159993
 20
174.27460841069819
 30
0.0
 11
-3.800153263131822
 21
175.16357484107041
 31
0.0
  0
ARC
  5
CFD
  8
SAPA_FOGBAND
 10
-4.2203450074174746
 20
174.2561395001043
 30
0.0
 40
1.00000000000003
 50
65.153306302305339
 51
109.9999999999911
  0
LINE
  5
CFE
  8
SAPA_FOGBAND
 10
-4.5623651507430081
 20
175.19583212089029
 30
0.0
 11
-4.6738671849756157
 21
175.15524869936971
 31
0.0
  0
ARC
  5
CFF
  8
SAPA_FOGBAND
 10
-4.3318470416499224
 20
174.21555607858369
 30
0.0
 40
1.000000000000139
 50
109.99999999999859
 51
157.10585874597069
  0
LINE
  5
D00
  8
SAPA_FOGBAND
 10
-5.2530722320386154
 20
174.60458583142221
 30
0.0
 11
-8.7502497875614544
 21
172.67125314748881
 31
0.0
  0
LINE
  5
D01
  8
SAPA_FOGBAND
 10
-8.7502497875614544
 20
172.67125314748881
 30
0.0
 11
-9.3940865168917131
 21
172.82377806536221
 31
0.0
  0
LINE
  5
D02
  8
SAPA_FOGBAND
 10
-9.3940865168917131
 20
172.82377806536221
 30
0.0
 11
-6.6243293898900681
 21
174.8933797636422
 31
0.0
  0
ARC
  5
D03
  8
SAPA_FOGBAND
 10
-6.9176423653906749
 20
174.9563678450784
 30
0.0
 40
0.3000000000000622
 50
347.8799759385484
 51
116.95295746820599
  0
LINE
  5
D04
  8
SAPA_FOGBAND
 10
-7.05362000194238
 20
175.22378153649649
 30
0.0
 11
-9.602604083229064
 21
173.9276443449312
 31
0.0
  0
ARC
  5
D05
  8
SAPA_FOGBAND
 10
-9.4666264466776617
 20
173.66023065351311
 30
0.0
 40
0.2999999999998946
 50
116.9529574681569
 51
199.99999999998499
  0
LINE
  5
D06
  8
SAPA_FOGBAND
 10
-9.7485342329133662
 20
173.55762461051549
 30
0.0
 11
-9.6683774399463864
 21
173.3373956318228
 31
0.0
  0
ARC
  5
D07
  8
SAPA_FOGBAND
 10
-9.9502852261821921
 20
173.23478958882541
 30
0.0
 40
0.2999999999999457
 50
289.99999999995458
 51
19.99999999995298
  0
LINE
  5
D08
  8
SAPA_FOGBAND
 10
-9.8476791831847272
 20
172.95288180258959
 30
0.0
 11
-14.124897894791349
 21
171.3961015061183
 31
0.0
  0
LINE
  5
D09
  8
SAPA_FOGBAND
 10
-14.124897894791349
 20
171.3961015061183
 30
0.0
 11
-19.8921735404397
 21
168.74180825547111
 31
0.0
  0
LINE
  5
D0A
  8
SAPA_FOGBAND
 10
-19.8921735404397
 20
168.74180825547111
 30
0.0
 11
-19.8921735404397
 21
168.74180825547111
 31
0.0
  0
LINE
  5
D0B
  8
SAPA_FOGBAND
 10
-19.8921735404397
 20
168.74180825547111
 30
0.0
 11
-20.586999382859659
 21
168.93195371872099
 31
0.0
  0
ARC
  5
D0C
  8
SAPA_FOGBAND
 10
-41.818351155604638
 20
164.3938233722732
 30
0.0
 40
21.710940217765621
 50
12.06522376247945
 51
15.36966433173971
  0
LINE
  5
D0D
  8
SAPA_FOGBAND
 10
-20.883883832281281
 20
170.14821326418169
 30
0.0
 11
-16.63142983336904
 21
173.46349625217101
 31
0.0
  0
LINE
  5
D0E
  8
SAPA_FOGBAND
 10
-16.63142983336904
 20
173.46349625217101
 30
0.0
 11
-17.264167098521501
 21
175.2019276006248
 31
0.0
  0
ARC
  5
D0F
  8
SAPA_FOGBAND
 10
-17.123213205403541
 20
175.25323062212371
 30
0.0
 40
0.1500000000000797
 50
109.9999999999981
 51
200.00000000000159
  0
LINE
  5
D10
  8
SAPA_FOGBAND
 10
-17.174516226902409
 20
175.39418451524159
 30
0.0
 11
-16.125639852230929
 21
175.77594429504691
 31
0.0
  0
ARC
  5
D11
  8
SAPA_FOGBAND
 10
-16.074336830732229
 20
175.6349904019292
 30
0.0
 40
0.1499999999997319
 50
26.530215321818869
 51
109.9999999999778
  0
LINE
  5
D12
  8
SAPA_FOGBAND
 10
-15.94013199097798
 20
175.7019908570505
 30
0.0
 11
-15.610082300681841
 21
175.0408869031011
 31
0.0
  0
ARC
  5
D13
  8
SAPA_FOGBAND
 10
-15.47587746092745
 20
175.10788735822271
 30
0.0
 40
0.1499999999999797
 50
206.5302153218926
 51
290.00000000006571
  0
LINE
  5
D14
  8
SAPA_FOGBAND
 10
-15.424574439428451
 20
174.96693346510489
 30
0.0
 11
-12.274986872765171
 21
176.11328958958521
 31
0.0
  0
ARC
  5
D15
  8
SAPA_FOGBAND
 10
-12.34339090143011
 20
176.3012281137425
 30
0.0
 40
0.2000000000000625
 50
289.99999999993543
 51
19.999999999933031
  0
LINE
  5
D16
  8
SAPA_FOGBAND
 10
-12.155452377272811
 20
176.36963214240751
 30
0.0
 11
-12.42906849193375
 21
177.12138623903601
 31
0.0
  0
ARC
  5
D17
  8
SAPA_FOGBAND
 10
-12.24112996777639
 20
177.18979026770111
 30
0.0
 40
0.2000000000001497
 50
109.9999999999672
 51
199.9999999999653
  0
LINE
  5
D18
  8
SAPA_FOGBAND
 10
-12.30953399644147
 20
177.3777287918584
 30
0.0
 11
-11.93365694812702
 21
177.5145368491888
 31
0.0
  0
ARC
  5
D19
  8
SAPA_FOGBAND
 10
-12.00206097679219
 20
177.70247537334581
 30
0.0
 40
0.1999999999999005
 50
290.00000000002223
 51
20.000000000036518
  0
LINE
  5
D1A
  8
SAPA_FOGBAND
 10
-11.814122452635161
 20
177.77087940201099
 30
0.0
 11
-12.18063083065169
 21
178.7778528946524
 31
0.0
  0
ARC
  5
D1B
  8
SAPA_FOGBAND
 10
-12.27460009273031
 20
178.7436508803199
 30
0.0
 40
0.0999999999999935
 50
19.999999999956341
 51
160.55544447107229
  0
LINE
  5
D1C
  8
SAPA_FOGBAND
 10
-12.36889649980731
 20
178.7769403322884
 30
0.0
 11
-12.79534528867895
 21
177.56897245612791
 31
0.0
  0
ARC
  5
D1D
  8
SAPA_FOGBAND
 10
-13.17253091698705
 20
177.70213026400211
 30
0.0
 40
0.400000000000019
 50
160.5554444711004
 51
340.55544447109219
  0
LINE
  5
D1E
  8
SAPA_FOGBAND
 10
-13.54971654529516
 20
177.83528807187611
 30
0.0
 11
-12.950506409862159
 21
179.5326233992628
 31
0.0
  0
ARC
  5
D1F
  8
SAPA_FOGBAND
 10
-11.771801321399529
 20
179.11650524965631
 30
0.0
 40
1.249999999999833
 50
109.9999999999916
 51
160.55544447109679
  0
ARC
  5
D20
  8
SAPA_FOGBAND
 10
-11.77180132139917
 20
179.11650524965651
 30
0.0
 40
1.2499999999998179
 50
59.444555528903521
 51
110.00000000000909
  0
LINE
  5
D21
  8
SAPA_FOGBAND
 10
-11.13633642903903
 20
180.19292727218169
 30
0.0
 11
-9.5862887166025921
 21
179.27785782718249
 31
0.0
  0
ARC
  5
D22
  8
SAPA_FOGBAND
 10
-9.7896374821578878
 20
178.93340277997439
 30
0.0
 40
0.4000000000000212
 50
239.44455552890591
 51
59.444555528901937
  0
LINE
  5
D23
  8
SAPA_FOGBAND
 10
-9.9929862477131515
 20
178.5889477327662
 30
0.0
 11
-11.096131756398441
 21
179.24018881411271
 31
0.0
  0
ARC
  5
D24
  8
SAPA_FOGBAND
 10
-11.14696894778721
 20
179.1540750523107
 30
0.0
 40
0.1000000000000099
 50
59.444555528937492
 51
200.0000000000401
  0
LINE
  5
D25
  8
SAPA_FOGBAND
 10
-11.24093820986578
 20
179.11987303797801
 30
0.0
 11
-10.87442983184933
 21
178.11289954533689
 31
0.0
  0
ARC
  5
D26
  8
SAPA_FOGBAND
 10
-10.686491307692149
 20
178.18130357400199
 30
0.0
 40
0.1999999999999664
 50
199.99999999997581
 51
289.99999999995708
  0
LINE
  5
D27
  8
SAPA_FOGBAND
 10
-10.61808727902717
 20
177.9933650498447
 30
0.0
 11
-10.24221023071264
 21
178.13017310717481
 31
0.0
  0
ARC
  5
D28
  8
SAPA_FOGBAND
 10
-10.17380620204726
 20
177.94223458301769
 30
0.0
 40
0.2000000000000226
 50
20.000000000064158
 51
110.0000000000706
  0
LINE
  5
D29
  8
SAPA_FOGBAND
 10
-9.9858676778901305
 20
178.01063861168311
 30
0.0
 11
-9.7122515632295325
 21
177.25888451505421
 31
0.0
  0
POLYLINE
  5
101E
  8
SAPA_PROFIL
 66
     1
 10
0.0
 20
0.0
 30
0.0
 70
     1
  0
VERTEX
  5
1B94
  8
SAPA_PROFIL
 10
14.01408479345309
 20
83.621248818518552
 30
0.0
  0
VERTEX
  5
1B95
  8
SAPA_PROFIL
 10
12.582772540881701
 20
85.665374559054044
 30
0.0
 42
0.6068358793267712
  0
VERTEX
  5
1B96
  8
SAPA_PROFIL
 10
12.05511284770591
 20
85.595890377825754
 30
0.0
  0
VERTEX
  5
1B97
  8
SAPA_PROFIL
 10
11.55414037371076
 20
84.219217063249076
 30
0.0
 42
0.2446821892215386
  0
VERTEX
  5
1B98
  8
SAPA_PROFIL
 10
11.59030884031324
 20
83.944555382666735
 30
0.0
  0
VERTEX
  5
1B99
  8
SAPA_PROFIL
 10
11.75780347869931
 20
83.705348248715836
 30
0.0
  0
VERTEX
  5
1B9A
  8
SAPA_PROFIL
 10
12.16737950084382
 20
83.992136466891225
 30
0.0
  0
VERTEX
  5
1B9B
  8
SAPA_PROFIL
 10
13.59853122167271
 20
81.948239989444346
 30
0.0
 42
-0.4142135623730808
  0
VERTEX
  5
1B9C
  8
SAPA_PROFIL
 10
13.475743417703709
 20
81.251875749124224
 30
0.0
  0
VERTEX
  5
1B9D
  8
SAPA_PROFIL
 10
6.759090672854426
 20
76.548824865643724
 30
0.0
 42
0.4142135623730806
  0
VERTEX
  5
1B9E
  8
SAPA_PROFIL
 10
6.6363028688855357
 20
75.852460625323829
 30
0.0
  0
VERTEX
  5
1B9F
  8
SAPA_PROFIL
 10
7.611382810682243
 20
74.459902150032462
 30
0.0
 42
0.4142135623730924
  0
VERTEX
  5
1BA0
  8
SAPA_PROFIL
 10
8.0292013548744308
 20
74.386229467651106
 30
0.0
  0
VERTEX
  5
1BA1
  8
SAPA_PROFIL
 10
8.3568621725900112
 20
74.615660042191493
 30
0.0
 42
0.4142135623730782
  0
VERTEX
  5
1BA2
  8
SAPA_PROFIL
 10
8.4305348549714836
 20
75.03347858638358
 30
0.0
  0
VERTEX
  5
1BA3
  8
SAPA_PROFIL
 10
8.0290313495254395
 20
75.606885017385821
 30
0.0
  0
VERTEX
  5
1BA4
  8
SAPA_PROFIL
 10
18.596092720853221
 20
83.006021046314345
 30
0.0
 42
-1.1388888888889159
  0
VERTEX
  5
1BA5
  8
SAPA_PROFIL
 10
22.725843062581252
 20
77.108126327433808
 30
0.0
  0
VERTEX
  5
1BA6
  8
SAPA_PROFIL
 10
12.15878169125312
 20
69.708990298505114
 30
0.0
  0
VERTEX
  5
1BA7
  8
SAPA_PROFIL
 10
11.75727818580719
 20
70.282396729507241
 30
0.0
 42
0.4142135623730755
  0
VERTEX
  5
1BA8
  8
SAPA_PROFIL
 10
11.33945964161512
 20
70.356069411888711
 30
0.0
  0
VERTEX
  5
1BA9
  8
SAPA_PROFIL
 10
11.011798823899881
 20
70.12663883734848
 30
0.0
 42
0.4142135623730951
  0
VERTEX
  5
1BAA
  8
SAPA_PROFIL
 10
10.93812614151841
 20
69.708820293156464
 30
0.0
  0
VERTEX
  5
1BAB
  8
SAPA_PROFIL
 10
11.91320608331489
 20
68.316261817865097
 30
0.0
 42
0.4142135623731051
  0
VERTEX
  5
1BAC
  8
SAPA_PROFIL
 10
12.60957032363512
 20
68.193474013896093
 30
0.0
  0
VERTEX
  5
1BAD
  8
SAPA_PROFIL
 10
23.586207717107751
 20
75.879398261000105
 30
0.0
 42
0.5438569069197531
  0
VERTEX
  5
1BAE
  8
SAPA_PROFIL
 10
24.076910694781191
 20
84.465023128461894
 30
0.0
 42
-0.599724549703341
  0
VERTEX
  5
1BAF
  8
SAPA_PROFIL
 10
24.201142874795099
 20
85.338393927361835
 30
0.0
  0
VERTEX
  5
1BB0
  8
SAPA_PROFIL
 10
28.502651536929871
 20
86.904015042817264
 30
0.0
  0
VERTEX
  5
1BB1
  8
SAPA_PROFIL
 10
28.634951157257891
 20
87.187732494191764
 30
0.0
  0
VERTEX
  5
1BB2
  8
SAPA_PROFIL
 10
28.918668608632402
 20
87.055432873863523
 30
0.0
  0
VERTEX
  5
1BB3
  8
SAPA_PROFIL
 10
33.127215390474817
 20
88.587218631971268
 30
0.0
 42
0.4142135623730951
  0
VERTEX
  5
1BB4
  8
SAPA_PROFIL
 10
33.306517133712987
 20
88.971732461204724
 30
0.0
  0
VERTEX
  5
1BB5
  8
SAPA_PROFIL
 10
32.998699004719811
 20
89.817455819912084
 30
0.0
 42
0.4142135623731089
  0
VERTEX
  5
1BB6
  8
SAPA_PROFIL
 10
32.614185175486341
 20
89.99675756315014
 30
0.0
  0
VERTEX
  5
1BB7
  8
SAPA_PROFIL
 10
14.59467088726046
 20
83.438190726301158
 30
0.0
 42
-0.3394542588633646
  0
SEQEND
  5
1BB8
  8
SAPA_PROFIL
  0
INSERT
  5
101F
  8
SAPA_PROFIL
  2
BYGG-013692$0$01041-G
 10
26.199999999998742
 20
25.000000000000401
 30
0.0
  0
INSERT
  5
1020
  8
SAPA_PROFIL
  2
BYGG-013688$0$00509-TXT
 10
-92.579727661312404
 20
32.302334623603997
 30
0.0
  0
POLYLINE
  5
1021
  8
SAPA_PROFIL
 66
     1
 10
0.0
 20
0.0
 30
0.0
 70
     1
  0
VERTEX
  5
1BB9
  8
SAPA_PROFIL
 10
-105.50222891467909
 20
29.000783132527769
 30
0.0
  0
VERTEX
  5
1BBA
  8
SAPA_PROFIL
 10
-74.49999999901172
 20
29.000783132527769
 30
0.0
 42
-0.4142135623730951
  0
VERTEX
  5
1BBB
  8
SAPA_PROFIL
 10
-72.49999999901172
 20
27.000783132527769
 30
0.0
  0
VERTEX
  5
1BBC
  8
SAPA_PROFIL
 10
-72.49999999901172
 20
10.999999999996531
 30
0.0
  0
VERTEX
  5
1BBD
  8
SAPA_PROFIL
 10
-70.49999999901172
 20
10.999999999996531
 30
0.0
  0
VERTEX
  5
1BBE
  8
SAPA_PROFIL
 10
-70.499999999011777
 20
31.000783132527829
 30
0.0
  0
VERTEX
  5
1BBF
  8
SAPA_PROFIL
 10
-101.50222891467909
 20
31.000783132527769
 30
0.0
 42
-0.4142135623730951
  0
VERTEX
  5
1BC0
  8
SAPA_PROFIL
 10
-103.50222891467909
 20
33.000783132527779
 30
0.0
  0
VERTEX
  5
1BC1
  8
SAPA_PROFIL
 10
-103.50222891467909
 20
49.002771084336132
 30
0.0
  0
VERTEX
  5
1BC2
  8
SAPA_PROFIL
 10
-105.50222891467909
 20
49.002771084336132
 30
0.0
  0
SEQEND
  5
1BC3
  8
SAPA_PROFIL
  0
POLYLINE
  5
1022
  8
SAPA_PROFIL
 66
     1
 10
0.0
 20
0.0
 30
0.0
 70
     1
  0
VERTEX
  5
1BC4
  8
SAPA_PROFIL
 10
-94.301524926813244
 20
-23.80000000000009
 30
0.0
 42
-0.4142135623730941
  0
VERTEX
  5
1BC5
  8
SAPA_PROFIL
 10
-95.301524926813244
 20
-22.8000000000001
 30
0.0
  0
VERTEX
  5
1BC6
  8
SAPA_PROFIL
 10
-95.3015249268134
 20
13.788730162778929
 30
0.0
 42
-0.198912367379658
  0
VERTEX
  5
1BC7
  8
SAPA_PROFIL
 10
-95.008631707999925
 20
14.495836943965481
 30
0.0
  0
VERTEX
  5
1BC8
  8
SAPA_PROFIL
 10
-85.392336617609587
 20
24.112132034355952
 30
0.0
 42
-0.1989123673796596
  0
VERTEX
  5
1BC9
  8
SAPA_PROFIL
 10
-85.180204583253627
 20
24.199999999999971
 30
0.0
  0
VERTEX
  5
1BCA
  8
SAPA_PROFIL
 10
-84.20263562670651
 20
24.199999999999971
 30
0.0
  0
VERTEX
  5
1BCB
  8
SAPA_PROFIL
 10
-83.394345249840953
 20
22.79999999999988
 30
0.0
 42
0.4142135623730646
  0
VERTEX
  5
1BCC
  8
SAPA_PROFIL
 10
-82.301524926813485
 20
22.50717967697231
 30
0.0
  0
VERTEX
  5
1BCD
  8
SAPA_PROFIL
 10
-81.101524926813426
 20
23.199999999999971
 30
0.0
  0
VERTEX
  5
1BCE
  8
SAPA_PROFIL
 10
-81.101524926813426
 20
24.199999999999971
 30
0.0
  0
VERTEX
  5
1BCF
  8
SAPA_PROFIL
 10
-78.501524926813417
 20
24.199999999999971
 30
0.0
 42
0.4142135623730951
  0
VERTEX
  5
1BD0
  8
SAPA_PROFIL
 10
-78.001524926813417
 20
24.699999999999971
 30
0.0
  0
VERTEX
  5
1BD1
  8
SAPA_PROFIL
 10
-78.001524926813303
 20
25.099999999999831
 30
0.0
  0
VERTEX
  5
1BD2
  8
SAPA_PROFIL
 10
-78.301524926813372
 20
25.399999999999789
 30
0.0
  0
VERTEX
  5
1BD3
  8
SAPA_PROFIL
 10
-85.387311364440336
 20
25.399999999999789
 30
0.0
 42
0.1989123673796596
  0
VERTEX
  5
1BD4
  8
SAPA_PROFIL
 10
-86.094418145626875
 20
25.107106781186339
 30
0.0
  0
VERTEX
  5
1BD5
  8
SAPA_PROFIL
 10
-96.267210351762387
 20
14.934314575050699
 30
0.0
 42
0.1989123673796587
  0
VERTEX
  5
1BD6
  8
SAPA_PROFIL
 10
-96.501524926813204
 20
14.368629150101439
 30
0.0
  0
VERTEX
  5
1BD7
  8
SAPA_PROFIL
 10
-96.501524926813431
 20
-24.499999999999918
 30
0.0
 42
0.4142135623730966
  0
VERTEX
  5
1BD8
  8
SAPA_PROFIL
 10
-96.001524926813445
 20
-24.999999999999918
 30
0.0
  0
VERTEX
  5
1BD9
  8
SAPA_PROFIL
 10
-78.301524926813343
 20
-24.999999999999961
 30
0.0
  0
VERTEX
  5
1BDA
  8
SAPA_PROFIL
 10
-78.001524926813289
 20
-24.70000000000001
 30
0.0
  0
VERTEX
  5
1BDB
  8
SAPA_PROFIL
 10
-78.001524926813403
 20
-24.30000000000015
 30
0.0
 42
0.4142135623730951
  0
VERTEX
  5
1BDC
  8
SAPA_PROFIL
 10
-78.501524926813403
 20
-23.800000000000139
 30
0.0
  0
VERTEX
  5
1BDD
  8
SAPA_PROFIL
 10
-81.101524926813426
 20
-23.800000000000139
 30
0.0
  0
VERTEX
  5
1BDE
  8
SAPA_PROFIL
 10
-81.101524926813426
 20
-22.80000000000015
 30
0.0
  0
VERTEX
  5
1BDF
  8
SAPA_PROFIL
 10
-82.301524926813457
 20
-22.107179676972489
 30
0.0
 42
0.4142135623730646
  0
VERTEX
  5
1BE0
  8
SAPA_PROFIL
 10
-83.394345249840939
 20
-22.400000000000048
 30
0.0
  0
VERTEX
  5
1BE1
  8
SAPA_PROFIL
 10
-84.202635626706495
 20
-23.800000000000139
 30
0.0
  0
SEQEND
  5
1BE2
  8
SAPA_PROFIL
  0
LINE
  5
1023
  8
SAPA_PROFIL
 10
-76.499999999010356
 20
23.30000000000004
 30
0.0
 11
-76.499999999010356
 21
20.850000000000229
 31
0.0
  0
ARC
  5
1024
  8
SAPA_PROFIL
 10
-76.999999999010356
 20
23.30000000000004
 30
0.0
 40
0.5
 50
0.0
 51
90.0
  0
LINE
  5
1025
  8
SAPA_PROFIL
 10
-80.699999999010174
 20
23.800000000000502
 30
0.0
 11
-76.999999999010356
 21
23.80000000000004
 31
0.0
  0
ARC
  5
1026
  8
SAPA_PROFIL
 10
-80.699999999010174
 20
23.50000000000032
 30
0.0
 40
0.3000000000001819
 50
90.0
 51
180.0
  0
LINE
  5
1027
  8
SAPA_PROFIL
 10
-80.999999999010356
 20
22.47320508075731
 30
0.0
 11
-80.999999999010356
 21
23.50000000000032
 31
0.0
  0
ARC
  5
1028
  8
SAPA_PROFIL
 10
-81.299999999010296
 20
22.473205080757431
 30
0.0
 40
0.2999999999999225
 50
299.9999999999722
 51
359.99999999997829
  0
LINE
  5
1029
  8
SAPA_PROFIL
 10
-82.687083486550705
 20
21.325961894323751
 30
0.0
 11
-81.149999999010447
 21
22.21339745962209
 31
0.0
  0
ARC
  5
102A
  8
SAPA_PROFIL
 10
-82.837083486550796
 20
21.585769515458921
 30
0.0
 40
0.2999999999999183
 50
210.0000000000197
 51
300.00000000003178
  0
LINE
  5
102B
  8
SAPA_PROFIL
 10
-83.404123202713308
 20
21.967911113762369
 30
0.0
 11
-83.096891107686005
 21
21.43576951545888
 31
0.0
  0
ARC
  5
102C
  8
SAPA_PROFIL
 10
-84.270148606497486
 20
21.467911113762401
 30
0.0
 40
0.9999999999997509
 50
30.000000000006469
 51
130.0000000000266
  0
LINE
  5
102D
  8
SAPA_PROFIL
 10
-89.821393803853326
 20
18.11527060541707
 30
0.0
 11
-84.912936216184235
 21
22.23395555688089
 31
0.0
  0
ARC
  5
102E
  8
SAPA_PROFIL
 10
-89.499999999010342
 20
17.732248383857321
 30
0.0
 40
0.5000000000000142
 50
129.99999999995401
 51
179.99999999994299
  0
LINE
  5
102F
  8
SAPA_PROFIL
 10
-89.999999999010356
 20
9.7002075382095878
 30
0.0
 11
-89.999999999010356
 21
17.732248383857812
 31
0.0
  0
ARC
  5
1030
  8
SAPA_PROFIL
 10
-88.999999999010228
 20
9.7002075382096606
 30
0.0
 40
1.000000000000131
 50
180.00000000000409
 51
250.00000000000529
  0
LINE
  5
1031
  8
SAPA_PROFIL
 10
-85.657979855684403
 20
7.4196339112453176
 30
0.0
 11
-89.342020142335855
 21
8.7605149174235972
 31
0.0
  0
ARC
  5
1032
  8
SAPA_PROFIL
 10
-85.999999999010058
 20
6.4799412904592408
 30
0.0
 40
1.0000000000001561
 50
0.0000000000049362
 51
70.000000000004036
  0
LINE
  5
1033
  8
SAPA_PROFIL
 10
-84.999999999009916
 20
-6.4799412904591458
 30
0.0
 11
-84.999999999009916
 21
6.479941290459327
 31
0.0
  0
ARC
  5
1034
  8
SAPA_PROFIL
 10
-85.999999999010058
 20
-6.4799412904590596
 30
0.0
 40
1.000000000000153
 50
289.99999999999591
 51
359.99999999999511
  0
LINE
  5
1035
  8
SAPA_PROFIL
 10
-89.342020142335855
 20
-8.7605149174238708
 30
0.0
 11
-85.657979855684403
 21
-7.4196339112451373
 31
0.0
  0
ARC
  5
1036
  8
SAPA_PROFIL
 10
-88.999999999010228
 20
-9.7002075382099342
 30
0.0
 40
1.000000000000127
 50
109.9999999999947
 51
179.99999999999579
  0
LINE
  5
1037
  8
SAPA_PROFIL
 10
-89.999999999010356
 20
-17.73224838385763
 30
0.0
 11
-89.999999999010356
 21
-9.7002075382098614
 31
0.0
  0
ARC
  5
1038
  8
SAPA_PROFIL
 10
-89.499999999009859
 20
-17.73224838385736
 30
0.0
 40
0.5000000000004964
 50
180.00000000003089
 51
230.00000000002029
  0
LINE
  5
1039
  8
SAPA_PROFIL
 10
-84.912936216184235
 20
-22.23395555688117
 30
0.0
 11
-89.821393803853326
 21
-18.11527060541734
 31
0.0
  0
ARC
  5
103A
  8
SAPA_PROFIL
 10
-84.270148606497685
 20
-21.467911113762451
 30
0.0
 40
0.9999999999998065
 50
229.99999999999051
 51
330.00000000001052
  0
LINE
  5
103B
  8
SAPA_PROFIL
 10
-83.096891107686005
 20
-21.43576951545915
 30
0.0
 11
-83.404123202713308
 21
-21.967911113762192
 31
0.0
  0
ARC
  5
103C
  8
SAPA_PROFIL
 10
-82.837083486550597
 20
-21.58576951545896
 30
0.0
 40
0.2999999999999962
 50
60.000000000026517
 51
150.00000000004141
  0
LINE
  5
103D
  8
SAPA_PROFIL
 10
-81.149999999010447
 20
-22.213397459621909
 30
0.0
 11
-82.687083486550705
 21
-21.325961894323569
 31
0.0
  0
ARC
  5
103E
  8
SAPA_PROFIL
 10
-81.299999999010296
 20
-22.473205080757261
 30
0.0
 40
0.2999999999999261
 50
0.0000000000230696
 51
60.000000000028493
  0
LINE
  5
103F
  8
SAPA_PROFIL
 10
-80.999999999010356
 20
-23.5000000000006
 30
0.0
 11
-80.999999999010356
 21
-22.47320508075714
 31
0.0
  0
ARC
  5
1040
  8
SAPA_PROFIL
 10
-80.699999999010416
 20
-23.500000000000359
 30
0.0
 40
0.2999999999999545
 50
180.0000000000434
 51
270.00000000004343
  0
LINE
  5
1041
  8
SAPA_PROFIL
 10
-76.999999999010356
 20
-23.80000000000032
 30
0.0
 11
-80.699999999010174
 21
-23.80000000000032
 31
0.0
  0
ARC
  5
1042
  8
SAPA_PROFIL
 10
-76.999999999010356
 20
-23.30000000000032
 30
0.0
 40
0.5
 50
270.0
 51
0.0
  0
LINE
  5
1043
  8
SAPA_PROFIL
 10
-76.499999999010356
 20
-20.850000000000051
 30
0.0
 11
-76.499999999010356
 21
-23.30000000000032
 31
0.0
  0
ARC
  5
1044
  8
SAPA_PROFIL
 10
-76.799999999010041
 20
-20.84999999999993
 30
0.0
 40
0.2999999999996829
 50
359.99999999997829
 51
44.999999999990401
  0
LINE
  5
1045
  8
SAPA_PROFIL
 10
-76.987867964654356
 20
-20.237867965644138
 30
0.0
 11
-76.587867964654265
 21
-20.637867965644229
 31
0.0
  0
ARC
  5
1046
  8
SAPA_PROFIL
 10
-77.199999999010259
 20
-20.450000000000308
 30
0.0
 40
0.3000000000000966
 50
45.000000000036458
 51
180.00000000001901
  0
LINE
  5
1047
  8
SAPA_PROFIL
 10
-77.499999999010356
 20
-21.30000000000032
 30
0.0
 11
-77.499999999010356
 21
-20.450000000000411
 31
0.0
  0
ARC
  5
1048
  8
SAPA_PROFIL
 10
-77.999999999010413
 20
-21.30000000000026
 30
0.0
 40
0.500000000000057
 50
270.00000000000648
 51
359.99999999999352
  0
LINE
  5
1049
  8
SAPA_PROFIL
 10
-78.390808928730507
 20
-21.799999999999869
 30
0.0
 11
-77.999999999010356
 21
-21.80000000000032
 31
0.0
  0
ARC
  5
104A
  8
SAPA_PROFIL
 10
-78.390808928730465
 20
-21.500000000000121
 30
0.0
 40
0.2999999999997442
 50
229.9999999999954
 51
269.99999999999193
  0
LINE
  5
104B
  8
SAPA_PROFIL
 10
-80.392836281915947
 20
-20.211721773134879
 30
0.0
 11
-78.583645211636281
 21
-21.729813332935599
 31
0.0
  0
ARC
  5
104C
  8
SAPA_PROFIL
 10
-80.199999999010188
 20
-19.98190844019939
 30
0.0
 40
0.2999999999997129
 50
180.00000000000401
 51
230.00000000000409
  0
LINE
  5
104D
  8
SAPA_PROFIL
 10
-80.499999999010356
 20
-16.450000000000411
 30
0.0
 11
-80.499999999009901
 21
-19.981908440199408
 31
0.0
  0
ARC
  5
104E
  8
SAPA_PROFIL
 10
-80.199999999010174
 20
-16.450000000000411
 30
0.0
 40
0.3000000000001819
 50
90.0
 51
180.0
  0
LINE
  5
104F
  8
SAPA_PROFIL
 10
-77.799999999010083
 20
-16.15000000000023
 30
0.0
 11
-80.199999999010174
 21
-16.15000000000023
 31
0.0
  0
ARC
  5
1050
  8
SAPA_PROFIL
 10
-77.799999999010311
 20
-16.45000000000018
 30
0.0
 40
0.2999999999999545
 50
359.99999999995657
 51
89.999999999956557
  0
LINE
  5
1051
  8
SAPA_PROFIL
 10
-77.499999999010356
 20
-16.850000000000051
 30
0.0
 11
-77.499999999010356
 21
-16.450000000000411
 31
0.0
  0
ARC
  5
1052
  8
SAPA_PROFIL
 10
-77.199999999010274
 20
-16.8500000000002
 30
0.0
 40
0.3000000000000748
 50
179.9999999999701
 51
314.99999999997311
  0
LINE
  5
1053
  8
SAPA_PROFIL
 10
-76.587867964654265
 20
-16.66213203435623
 30
0.0
 11
-76.987867964654356
 21
-17.062132034356321
 31
0.0
  0
ARC
  5
1054
  8
SAPA_PROFIL
 10
-76.799999999010112
 20
-16.45000000000049
 30
0.0
 40
0.2999999999997556
 50
315.00000000001478
 51
0.0000000000156059
  0
LINE
  5
1055
  8
SAPA_PROFIL
 10
-76.499999999009901
 20
-14.65000000000023
 30
0.0
 11
-76.499999999010356
 21
-16.450000000000411
 31
0.0
  0
ARC
  5
1056
  8
SAPA_PROFIL
 10
-76.999999999009873
 20
-14.650000000000199
 30
0.0
 40
0.4999999999999716
 50
359.99999999999682
 51
90.000000000003226
  0
LINE
  5
1057
  8
SAPA_PROFIL
 10
-81.499999999010825
 20
-14.15000000000023
 30
0.0
 11
-76.999999999009901
 21
-14.15000000000023
 31
0.0
  0
ARC
  5
1058
  8
SAPA_PROFIL
 10
-81.499999999010825
 20
-14.65000000000023
 30
0.0
 40
0.5
 50
90.0
 51
180.0
  0
LINE
  5
1059
  8
SAPA_PROFIL
 10
-81.999999999009901
 20
-18.65000000000023
 30
0.0
 11
-81.999999999010811
 21
-14.65000000000023
 31
0.0
  0
ARC
  5
105A
  8
SAPA_PROFIL
 10
-82.499999999010015
 20
-18.650000000000109
 30
0.0
 40
0.5000000000001137
 50
270.00000000001302
 51
359.99999999998698
  0
LINE
  5
105B
  8
SAPA_PROFIL
 10
-84.516956646213544
 20
-19.15000000000023
 30
0.0
 11
-82.499999999009916
 21
-19.15000000000023
 31
0.0
  0
ARC
  5
105C
  8
SAPA_PROFIL
 10
-84.51695664621333
 20
-18.649999999999999
 30
0.0
 40
0.5000000000002222
 50
229.9999999999684
 51
269.9999999999755
  0
LINE
  5
105D
  8
SAPA_PROFIL
 10
-87.321393803853326
 20
-16.949501460029879
 30
0.0
 11
-84.838350451056954
 21
-19.033022221559481
 31
0.0
  0
ARC
  5
105E
  8
SAPA_PROFIL
 10
-86.999999999010086
 20
-16.566479238470599
 30
0.0
 40
0.4999999999998153
 50
180.00000000000281
 51
229.99999999998869
  0
LINE
  5
105F
  8
SAPA_PROFIL
 10
-87.499999999010356
 20
-10.56853372839136
 30
0.0
 11
-87.499999999009916
 21
-16.566479238470631
 31
0.0
  0
ARC
  5
1060
  8
SAPA_PROFIL
 10
-86.999999999010129
 20
-10.56853372839128
 30
0.0
 40
0.5000000000002258
 50
110.0000000000079
 51
180.00000000000909
  0
LINE
  5
1061
  8
SAPA_PROFIL
 10
-83.157979855684403
 20
-8.6380638705315054
 30
0.0
 11
-87.171010070673105
 21
-10.098687417998139
 31
0.0
  0
ARC
  5
1062
  8
SAPA_PROFIL
 10
-83.499999999010058
 20
-7.6983712497454153
 30
0.0
 40
1.0000000000001701
 50
289.99999999999648
 51
359.99999999999432
  0
LINE
  5
1063
  8
SAPA_PROFIL
 10
-82.499999999009916
 20
-6.6500000000002277
 30
0.0
 11
-82.499999999009916
 21
-7.6983712497455148
 31
0.0
  0
ARC
  5
1064
  8
SAPA_PROFIL
 10
-82.199999999010046
 20
-6.6499999999999151
 30
0.0
 40
0.2999999999998692
 50
90.000000000027114
 51
180.00000000005971
  0
LINE
  5
1065
  8
SAPA_PROFIL
 10
-81.799999999010083
 20
-6.3500000000000458
 30
0.0
 11
-82.199999999010174
 21
-6.3500000000000458
 31
0.0
  0
ARC
  5
1066
  8
SAPA_PROFIL
 10
-81.799999999010055
 20
-6.0499999999998932
 30
0.0
 40
0.3000000000001535
 50
269.9999999999946
 51
0.0000000000054281
  0
LINE
  5
1067
  8
SAPA_PROFIL
 10
-81.499999999009887
 20
-5.6500000000002277
 30
0.0
 11
-81.499999999009887
 21
-6.0499999999998639
 31
0.0
  0
ARC
  5
1068
  8
SAPA_PROFIL
 10
-81.799999999010055
 20
-5.6500000000002002
 30
0.0
 40
0.3000000000001535
 50
359.99999999999449
 51
90.000000000005414
  0
LINE
  5
1069
  8
SAPA_PROFIL
 10
-82.199999999010174
 20
-5.3500000000000458
 30
0.0
 11
-81.799999999010083
 21
-5.3500000000000458
 31
0.0
  0
ARC
  5
106A
  8
SAPA_PROFIL
 10
-82.199999999010004
 20
-5.050000000000149
 30
0.0
 40
0.2999999999998977
 50
179.99999999994569
 51
269.99999999996737
  0
LINE
  5
106B
  8
SAPA_PROFIL
 10
-82.499999999009916
 20
-0.6242640687120468
 30
0.0
 11
-82.499999999009916
 21
-5.0499999999998639
 31
0.0
  0
ARC
  5
106C
  8
SAPA_PROFIL
 10
-82.799999999009984
 20
-0.6242640687125624
 30
0.0
 40
0.3000000000000976
 50
0.00000000009847
 51
45.00000000008113
  0
LINE
  5
106D
  8
SAPA_PROFIL
 10
-82.999999999009901
 20
-0.0000000000001375
 30
0.0
 11
-82.587867964654265
 21
-0.4121320343562286
 31
0.0
  0
LINE
  5
106E
  8
SAPA_PROFIL
 10
-82.587867964654265
 20
0.4121320343559535
 30
0.0
 11
-82.999999999009901
 21
-0.0000000000001375
 31
0.0
  0
ARC
  5
106F
  8
SAPA_PROFIL
 10
-82.799999999009984
 20
0.6242640687122874
 30
0.0
 40
0.3000000000000966
 50
314.99999999991888
 51
359.99999999990149
  0
LINE
  5
1070
  8
SAPA_PROFIL
 10
-82.499999999009916
 20
5.0500000000000442
 30
0.0
 11
-82.499999999009916
 21
0.6242640687117717
 31
0.0
  0
ARC
  5
1071
  8
SAPA_PROFIL
 10
-82.199999999010231
 20
5.0500000000001011
 30
0.0
 40
0.2999999999996703
 50
89.999999999989143
 51
180.0000000000108
  0
LINE
  5
1072
  8
SAPA_PROFIL
 10
-81.799999999010083
 20
5.3499999999997714
 30
0.0
 11
-82.199999999010174
 21
5.3499999999997714
 31
0.0
  0
ARC
  5
1073
  8
SAPA_PROFIL
 10
-81.799999999010055
 20
5.649999999999924
 30
0.0
 40
0.3000000000001535
 50
269.9999999999946
 51
0.0000000000054281
  0
LINE
  5
1074
  8
SAPA_PROFIL
 10
-81.499999999009887
 20
6.0500000000000442
 30
0.0
 11
-81.499999999009887
 21
5.6499999999999533
 31
0.0
  0
ARC
  5
1075
  8
SAPA_PROFIL
 10
-81.799999999009827
 20
6.0499999999998453
 30
0.0
 40
0.2999999999999261
 50
0.000000000037997
 51
90.000000000048857
  0
LINE
  5
1076
  8
SAPA_PROFIL
 10
-82.199999999010174
 20
6.3499999999997714
 30
0.0
 11
-81.799999999010083
 21
6.3499999999997714
 31
0.0
  0
ARC
  5
1077
  8
SAPA_PROFIL
 10
-82.199999999010046
 20
6.6499999999996398
 30
0.0
 40
0.2999999999998692
 50
179.99999999994029
 51
269.99999999997289
  0
LINE
  5
1078
  8
SAPA_PROFIL
 10
-82.499999999009916
 20
7.6983712497456951
 30
0.0
 11
-82.499999999009916
 21
6.6499999999999533
 31
0.0
  0
ARC
  5
1079
  8
SAPA_PROFIL
 10
-83.499999999010058
 20
7.6983712497455956
 30
0.0
 40
1.0000000000001701
 50
0.0000000000056487
 51
70.000000000003539
  0
LINE
  5
107A
  8
SAPA_PROFIL
 10
-87.171010070673105
 20
10.09868741799832
 30
0.0
 11
-83.157979855684403
 21
8.6380638705316866
 31
0.0
  0
ARC
  5
107B
  8
SAPA_PROFIL
 10
-86.999999999010456
 20
10.568533728391239
 30
0.0
 40
0.4999999999999006
 50
180.00000000001691
 51
250.0000000000183
  0
LINE
  5
107C
  8
SAPA_PROFIL
 10
-87.499999999009916
 20
16.566479238470809
 30
0.0
 11
-87.499999999010356
 21
10.56853372839109
 31
0.0
  0
ARC
  5
107D
  8
SAPA_PROFIL
 10
-86.999999999010086
 20
16.566479238470791
 30
0.0
 40
0.4999999999998141
 50
130.0000000000112
 51
179.9999999999971
  0
LINE
  5
107E
  8
SAPA_PROFIL
 10
-84.838350451056954
 20
19.033022221559211
 30
0.0
 11
-87.321393803853326
 21
16.949501460030071
 31
0.0
  0
ARC
  5
107F
  8
SAPA_PROFIL
 10
-84.51695664621333
 20
18.649999999999729
 30
0.0
 40
0.5000000000002239
 50
90.000000000024414
 51
130.00000000003149
  0
LINE
  5
1080
  8
SAPA_PROFIL
 10
-82.499999999009916
 20
19.149999999999949
 30
0.0
 11
-84.516956646213544
 21
19.149999999999949
 31
0.0
  0
ARC
  5
1081
  8
SAPA_PROFIL
 10
-82.499999999010015
 20
18.649999999999839
 30
0.0
 40
0.5000000000001137
 50
0.0000000000130276
 51
89.999999999986969
  0
LINE
  5
1082
  8
SAPA_PROFIL
 10
-81.999999999010811
 20
14.649999999999951
 30
0.0
 11
-81.999999999009901
 21
18.649999999999949
 31
0.0
  0
ARC
  5
1083
  8
SAPA_PROFIL
 10
-81.499999999010825
 20
14.649999999999951
 30
0.0
 40
0.5
 50
180.0
 51
270.0
  0
LINE
  5
1084
  8
SAPA_PROFIL
 10
-76.999999999009901
 20
14.150000000000411
 30
0.0
 11
-81.499999999010825
 21
14.149999999999951
 31
0.0
  0
ARC
  5
1085
  8
SAPA_PROFIL
 10
-76.999999999009873
 20
14.65000000000038
 30
0.0
 40
0.4999999999999716
 50
269.99999999999682
 51
0.0000000000032569
  0
LINE
  5
1086
  8
SAPA_PROFIL
 10
-76.499999999010356
 20
16.450000000000131
 30
0.0
 11
-76.499999999009901
 21
14.6500000000004
 31
0.0
  0
ARC
  5
1087
  8
SAPA_PROFIL
 10
-76.799999999010112
 20
16.450000000000209
 30
0.0
 40
0.2999999999997557
 50
359.99999999998442
 51
44.999999999985128
  0
LINE
  5
1088
  8
SAPA_PROFIL
 10
-76.987867964654356
 20
17.06213203435604
 30
0.0
 11
-76.587867964654265
 21
16.662132034355949
 31
0.0
  0
ARC
  5
1089
  8
SAPA_PROFIL
 10
-77.199999999010373
 20
16.850000000000151
 30
0.0
 40
0.2999999999999829
 50
44.99999999998272
 51
179.99999999998639
  0
LINE
  5
108A
  8
SAPA_PROFIL
 10
-77.499999999010356
 20
16.450000000000131
 30
0.0
 11
-77.499999999010356
 21
16.850000000000222
 31
0.0
  0
ARC
  5
108B
  8
SAPA_PROFIL
 10
-77.799999999010083
 20
16.450000000000131
 30
0.0
 40
0.2999999999997271
 50
270.0
 51
0.0
  0
LINE
  5
108C
  8
SAPA_PROFIL
 10
-80.199999999010174
 20
16.149999999999949
 30
0.0
 11
-77.799999999010083
 21
16.150000000000411
 31
0.0
  0
ARC
  5
108D
  8
SAPA_PROFIL
 10
-80.199999999010174
 20
16.450000000000131
 30
0.0
 40
0.3000000000001819
 50
180.0
 51
270.0
  0
LINE
  5
108E
  8
SAPA_PROFIL
 10
-80.499999999009901
 20
19.981908440199138
 30
0.0
 11
-80.499999999010356
 21
16.450000000000131
 31
0.0
  0
ARC
  5
108F
  8
SAPA_PROFIL
 10
-80.199999999009705
 20
19.981908440199341
 30
0.0
 40
0.3000000000001951
 50
130.0000000000386
 51
180.00000000003931
  0
LINE
  5
1090
  8
SAPA_PROFIL
 10
-78.583645211636281
 20
21.72981333293578
 30
0.0
 11
-80.392836281915947
 21
20.211721773135061
 31
0.0
  0
ARC
  5
1091
  8
SAPA_PROFIL
 10
-78.390808928730465
 20
21.500000000000298
 30
0.0
 40
0.2999999999997449
 50
90.000000000008114
 51
130.0000000000046
  0
LINE
  5
1092
  8
SAPA_PROFIL
 10
-77.999999999010356
 20
21.80000000000005
 30
0.0
 11
-78.390808928730507
 21
21.80000000000005
 31
0.0
  0
ARC
  5
1093
  8
SAPA_PROFIL
 10
-77.999999999010413
 20
21.29999999999999
 30
0.0
 40
0.500000000000057
 50
0.0000000000065138
 51
89.999999999993491
  0
LINE
  5
1094
  8
SAPA_PROFIL
 10
-77.499999999010356
 20
20.450000000000141
 30
0.0
 11
-77.499999999010356
 21
21.30000000000004
 31
0.0
  0
ARC
  5
1095
  8
SAPA_PROFIL
 10
-77.199999999010345
 20
20.450000000000259
 30
0.0
 40
0.3000000000000044
 50
180.00000000002439
 51
315.0000000000058
  0
LINE
  5
1096
  8
SAPA_PROFIL
 10
-76.587867964654265
 20
20.637867965643949
 30
0.0
 11
-76.987867964654356
 21
20.23786796564432
 31
0.0
  0
ARC
  5
1097
  8
SAPA_PROFIL
 10
-76.799999999010581
 20
20.849999999999881
 30
0.0
 40
0.3000000000002245
 50
315.00000000005178
 51
0.0000000000651378
  0
POLYLINE
  5
1098
  8
SAPA_PROFIL
 66
     1
 10
0.0
 20
0.0
 30
0.0
 70
     1
  0
VERTEX
  5
1BE3
  8
SAPA_PROFIL
 10
-76.499999999010356
 20
20.85000000000025
 30
0.0
 42
-0.1989123673797145
  0
VERTEX
  5
1BE4
  8
SAPA_PROFIL
 10
-76.587867964654265
 20
20.637867965643981
 30
0.0
  0
VERTEX
  5
1BE5
  8
SAPA_PROFIL
 10
-76.987867964654356
 20
20.237867965644341
 30
0.0
 42
-0.668178637919182
  0
VERTEX
  5
1BE6
  8
SAPA_PROFIL
 10
-77.499999999010356
 20
20.450000000000159
 30
0.0
  0
VERTEX
  5
1BE7
  8
SAPA_PROFIL
 10
-77.499999999010356
 20
21.300000000000072
 30
0.0
 42
0.4142135623730284
  0
VERTEX
  5
1BE8
  8
SAPA_PROFIL
 10
-77.999999999010356
 20
21.800000000000072
 30
0.0
  0
VERTEX
  5
1BE9
  8
SAPA_PROFIL
 10
-78.390808928730507
 20
21.800000000000072
 30
0.0
 42
0.17632698070845
  0
VERTEX
  5
1BEA
  8
SAPA_PROFIL
 10
-78.583645211636281
 20
21.729813332935809
 30
0.0
  0
VERTEX
  5
1BEB
  8
SAPA_PROFIL
 10
-80.392836281915947
 20
20.211721773135078
 30
0.0
 42
0.2216946626429421
  0
VERTEX
  5
1BEC
  8
SAPA_PROFIL
 10
-80.499999999009901
 20
19.98190844019916
 30
0.0
  0
VERTEX
  5
1BED
  8
SAPA_PROFIL
 10
-80.499999999010356
 20
16.450000000000159
 30
0.0
 42
0.4142135623730951
  0
VERTEX
  5
1BEE
  8
SAPA_PROFIL
 10
-80.199999999010174
 20
16.14999999999997
 30
0.0
  0
VERTEX
  5
1BEF
  8
SAPA_PROFIL
 10
-77.799999999010083
 20
16.150000000000428
 30
0.0
 42
0.4142135623730951
  0
VERTEX
  5
1BF0
  8
SAPA_PROFIL
 10
-77.499999999010356
 20
16.450000000000159
 30
0.0
  0
VERTEX
  5
1BF1
  8
SAPA_PROFIL
 10
-77.499999999010356
 20
16.85000000000025
 30
0.0
 42
-0.6681786379193188
  0
VERTEX
  5
1BF2
  8
SAPA_PROFIL
 10
-76.987867964654356
 20
17.062132034356068
 30
0.0
  0
VERTEX
  5
1BF3
  8
SAPA_PROFIL
 10
-76.587867964654265
 20
16.662132034355981
 30
0.0
 42
-0.198912367379658
  0
VERTEX
  5
1BF4
  8
SAPA_PROFIL
 10
-76.499999999010356
 20
16.450000000000159
 30
0.0
  0
VERTEX
  5
1BF5
  8
SAPA_PROFIL
 10
-76.499999999009901
 20
14.65000000000043
 30
0.0
 42
-0.4142135623731284
  0
VERTEX
  5
1BF6
  8
SAPA_PROFIL
 10
-76.999999999009901
 20
14.15000000000043
 30
0.0
  0
VERTEX
  5
1BF7
  8
SAPA_PROFIL
 10
-81.499999999010825
 20
14.149999999999981
 30
0.0
 42
-0.4142135623730951
  0
VERTEX
  5
1BF8
  8
SAPA_PROFIL
 10
-81.999999999010811
 20
14.649999999999981
 30
0.0
  0
VERTEX
  5
1BF9
  8
SAPA_PROFIL
 10
-81.999999999009901
 20
18.649999999999981
 30
0.0
 42
0.4142135623729619
  0
VERTEX
  5
1BFA
  8
SAPA_PROFIL
 10
-82.499999999009916
 20
19.149999999999981
 30
0.0
  0
VERTEX
  5
1BFB
  8
SAPA_PROFIL
 10
-84.516956646213544
 20
19.149999999999981
 30
0.0
 42
0.1763269807084973
  0
VERTEX
  5
1BFC
  8
SAPA_PROFIL
 10
-84.838350451056954
 20
19.033022221559229
 30
0.0
  0
VERTEX
  5
1BFD
  8
SAPA_PROFIL
 10
-87.321393803853326
 20
16.949501460030088
 30
0.0
 42
0.2216946626428772
  0
VERTEX
  5
1BFE
  8
SAPA_PROFIL
 10
-87.499999999009916
 20
16.56647923847083
 30
0.0
  0
VERTEX
  5
1BFF
  8
SAPA_PROFIL
 10
-87.499999999010356
 20
10.56853372839111
 30
0.0
 42
0.315298788878991
  0
VERTEX
  5
1C00
  8
SAPA_PROFIL
 10
-87.171010070673105
 20
10.098687417998351
 30
0.0
  0
VERTEX
  5
1C01
  8
SAPA_PROFIL
 10
-83.157979855684403
 20
8.6380638705317097
 30
0.0
 42
-0.3152987888789731
  0
VERTEX
  5
1C02
  8
SAPA_PROFIL
 10
-82.499999999009916
 20
7.6983712497457191
 30
0.0
  0
VERTEX
  5
1C03
  8
SAPA_PROFIL
 10
-82.499999999009916
 20
6.6499999999999773
 30
0.0
 42
0.4142135623732616
  0
VERTEX
  5
1C04
  8
SAPA_PROFIL
 10
-82.199999999010174
 20
6.3499999999997954
 30
0.0
  0
VERTEX
  5
1C05
  8
SAPA_PROFIL
 10
-81.799999999010083
 20
6.3499999999997954
 30
0.0
 42
-0.4142135623731506
  0
VERTEX
  5
1C06
  8
SAPA_PROFIL
 10
-81.499999999009887
 20
6.0500000000000682
 30
0.0
  0
VERTEX
  5
1C07
  8
SAPA_PROFIL
 10
-81.499999999009887
 20
5.6499999999999773
 30
0.0
 42
-0.4142135623731505
  0
VERTEX
  5
1C08
  8
SAPA_PROFIL
 10
-81.799999999010083
 20
5.3499999999997954
 30
0.0
  0
VERTEX
  5
1C09
  8
SAPA_PROFIL
 10
-82.199999999010174
 20
5.3499999999997954
 30
0.0
 42
0.4142135623732061
  0
VERTEX
  5
1C0A
  8
SAPA_PROFIL
 10
-82.499999999009916
 20
5.0500000000000682
 30
0.0
  0
VERTEX
  5
1C0B
  8
SAPA_PROFIL
 10
-82.499999999009916
 20
0.6242640687117956
 30
0.0
 42
-0.198912367379577
  0
VERTEX
  5
1C0C
  8
SAPA_PROFIL
 10
-82.587867964654265
 20
0.4121320343559774
 30
0.0
  0
VERTEX
  5
1C0D
  8
SAPA_PROFIL
 10
-82.999999999009901
 20
-0.0000000000001137
 30
0.0
  0
VERTEX
  5
1C0E
  8
SAPA_PROFIL
 10
-82.587867964654265
 20
-0.4121320343562048
 30
0.0
 42
-0.1989123673795771
  0
VERTEX
  5
1C0F
  8
SAPA_PROFIL
 10
-82.499999999009916
 20
-0.6242640687120229
 30
0.0
  0
VERTEX
  5
1C10
  8
SAPA_PROFIL
 10
-82.499999999009916
 20
-5.04999999999984
 30
0.0
 42
0.4142135623732059
  0
VERTEX
  5
1C11
  8
SAPA_PROFIL
 10
-82.199999999010174
 20
-5.3500000000000218
 30
0.0
  0
VERTEX
  5
1C12
  8
SAPA_PROFIL
 10
-81.799999999010083
 20
-5.3500000000000218
 30
0.0
 42
-0.4142135623731506
  0
VERTEX
  5
1C13
  8
SAPA_PROFIL
 10
-81.499999999009887
 20
-5.6500000000002037
 30
0.0
  0
VERTEX
  5
1C14
  8
SAPA_PROFIL
 10
-81.499999999009887
 20
-6.04999999999984
 30
0.0
 42
-0.4142135623731505
  0
VERTEX
  5
1C15
  8
SAPA_PROFIL
 10
-81.799999999010083
 20
-6.3500000000000218
 30
0.0
  0
VERTEX
  5
1C16
  8
SAPA_PROFIL
 10
-82.199999999010174
 20
-6.3500000000000218
 30
0.0
 42
0.4142135623732615
  0
VERTEX
  5
1C17
  8
SAPA_PROFIL
 10
-82.499999999009916
 20
-6.6500000000002037
 30
0.0
  0
VERTEX
  5
1C18
  8
SAPA_PROFIL
 10
-82.499999999009916
 20
-7.6983712497454908
 30
0.0
 42
-0.3152987888789731
  0
VERTEX
  5
1C19
  8
SAPA_PROFIL
 10
-83.157979855684403
 20
-8.6380638705314823
 30
0.0
  0
VERTEX
  5
1C1A
  8
SAPA_PROFIL
 10
-87.171010070673105
 20
-10.09868741799812
 30
0.0
 42
0.315298788878991
  0
VERTEX
  5
1C1B
  8
SAPA_PROFIL
 10
-87.499999999010356
 20
-10.568533728391341
 30
0.0
  0
VERTEX
  5
1C1C
  8
SAPA_PROFIL
 10
-87.499999999009916
 20
-16.566479238470599
 30
0.0
 42
0.2216946626428772
  0
VERTEX
  5
1C1D
  8
SAPA_PROFIL
 10
-87.321393803853326
 20
-16.949501460029861
 30
0.0
  0
VERTEX
  5
1C1E
  8
SAPA_PROFIL
 10
-84.838350451056954
 20
-19.03302222155946
 30
0.0
 42
0.1763269807084973
  0
VERTEX
  5
1C1F
  8
SAPA_PROFIL
 10
-84.516956646213544
 20
-19.150000000000201
 30
0.0
  0
VERTEX
  5
1C20
  8
SAPA_PROFIL
 10
-82.499999999009916
 20
-19.150000000000201
 30
0.0
 42
0.4142135623729619
  0
VERTEX
  5
1C21
  8
SAPA_PROFIL
 10
-81.999999999009901
 20
-18.650000000000201
 30
0.0
  0
VERTEX
  5
1C22
  8
SAPA_PROFIL
 10
-81.999999999010811
 20
-14.650000000000199
 30
0.0
 42
-0.4142135623730951
  0
VERTEX
  5
1C23
  8
SAPA_PROFIL
 10
-81.499999999010825
 20
-14.150000000000199
 30
0.0
  0
VERTEX
  5
1C24
  8
SAPA_PROFIL
 10
-76.999999999009901
 20
-14.150000000000199
 30
0.0
 42
-0.4142135623731285
  0
VERTEX
  5
1C25
  8
SAPA_PROFIL
 10
-76.499999999009901
 20
-14.650000000000199
 30
0.0
  0
VERTEX
  5
1C26
  8
SAPA_PROFIL
 10
-76.499999999010356
 20
-16.450000000000379
 30
0.0
 42
-0.198912367379658
  0
VERTEX
  5
1C27
  8
SAPA_PROFIL
 10
-76.587867964654265
 20
-16.662132034356201
 30
0.0
  0
VERTEX
  5
1C28
  8
SAPA_PROFIL
 10
-76.987867964654356
 20
-17.062132034356289
 30
0.0
 42
-0.6681786379193188
  0
VERTEX
  5
1C29
  8
SAPA_PROFIL
 10
-77.499999999010356
 20
-16.850000000000019
 30
0.0
  0
VERTEX
  5
1C2A
  8
SAPA_PROFIL
 10
-77.499999999010356
 20
-16.450000000000379
 30
0.0
 42
0.4142135623730951
  0
VERTEX
  5
1C2B
  8
SAPA_PROFIL
 10
-77.799999999010083
 20
-16.150000000000201
 30
0.0
  0
VERTEX
  5
1C2C
  8
SAPA_PROFIL
 10
-80.199999999010174
 20
-16.150000000000201
 30
0.0
 42
0.4142135623730951
  0
VERTEX
  5
1C2D
  8
SAPA_PROFIL
 10
-80.499999999010356
 20
-16.450000000000379
 30
0.0
  0
VERTEX
  5
1C2E
  8
SAPA_PROFIL
 10
-80.499999999009901
 20
-19.98190844019939
 30
0.0
 42
0.221694662642942
  0
VERTEX
  5
1C2F
  8
SAPA_PROFIL
 10
-80.392836281915947
 20
-20.211721773134862
 30
0.0
  0
VERTEX
  5
1C30
  8
SAPA_PROFIL
 10
-78.583645211636281
 20
-21.729813332935581
 30
0.0
 42
0.1763269807084499
  0
VERTEX
  5
1C31
  8
SAPA_PROFIL
 10
-78.390808928730507
 20
-21.799999999999841
 30
0.0
  0
VERTEX
  5
1C32
  8
SAPA_PROFIL
 10
-77.999999999010356
 20
-21.800000000000288
 30
0.0
 42
0.4142135623730284
  0
VERTEX
  5
1C33
  8
SAPA_PROFIL
 10
-77.499999999010356
 20
-21.300000000000299
 30
0.0
  0
VERTEX
  5
1C34
  8
SAPA_PROFIL
 10
-77.499999999010356
 20
-20.45000000000039
 30
0.0
 42
-0.668178637919182
  0
VERTEX
  5
1C35
  8
SAPA_PROFIL
 10
-76.987867964654356
 20
-20.237867965644121
 30
0.0
  0
VERTEX
  5
1C36
  8
SAPA_PROFIL
 10
-76.587867964654265
 20
-20.637867965644201
 30
0.0
 42
-0.1989123673797144
  0
VERTEX
  5
1C37
  8
SAPA_PROFIL
 10
-76.499999999010356
 20
-20.850000000000019
 30
0.0
  0
VERTEX
  5
1C38
  8
SAPA_PROFIL
 10
-76.499999999010356
 20
-23.300000000000299
 30
0.0
 42
-0.4142135623730951
  0
VERTEX
  5
1C39
  8
SAPA_PROFIL
 10
-76.999999999010356
 20
-23.800000000000299
 30
0.0
  0
VERTEX
  5
1C3A
  8
SAPA_PROFIL
 10
-80.699999999010174
 20
-23.800000000000299
 30
0.0
 42
-0.4142135623730951
  0
VERTEX
  5
1C3B
  8
SAPA_PROFIL
 10
-80.999999999010356
 20
-23.500000000000568
 30
0.0
  0
VERTEX
  5
1C3C
  8
SAPA_PROFIL
 10
-80.999999999010356
 20
-22.473205080757111
 30
0.0
 42
0.2679491924311428
  0
VERTEX
  5
1C3D
  8
SAPA_PROFIL
 10
-81.149999999010447
 20
-22.213397459621891
 30
0.0
  0
VERTEX
  5
1C3E
  8
SAPA_PROFIL
 10
-82.687083486550705
 20
-21.325961894323541
 30
0.0
 42
0.4142135623731709
  0
VERTEX
  5
1C3F
  8
SAPA_PROFIL
 10
-83.096891107686005
 20
-21.435769515459128
 30
0.0
  0
VERTEX
  5
1C40
  8
SAPA_PROFIL
 10
-83.404123202713308
 20
-21.96791111376217
 30
0.0
 42
-0.4663076581551056
  0
VERTEX
  5
1C41
  8
SAPA_PROFIL
 10
-84.912936216184235
 20
-22.233955556881138
 30
0.0
  0
VERTEX
  5
1C42
  8
SAPA_PROFIL
 10
-89.821393803853326
 20
-18.115270605417319
 30
0.0
 42
-0.2216946626428921
  0
VERTEX
  5
1C43
  8
SAPA_PROFIL
 10
-89.999999999010356
 20
-17.732248383857609
 30
0.0
  0
VERTEX
  5
1C44
  8
SAPA_PROFIL
 10
-89.999999999010356
 20
-9.7002075382098383
 30
0.0
 42
-0.3152987888789878
  0
VERTEX
  5
1C45
  8
SAPA_PROFIL
 10
-89.342020142335855
 20
-8.7605149174238477
 30
0.0
  0
VERTEX
  5
1C46
  8
SAPA_PROFIL
 10
-85.657979855684403
 20
-7.4196339112451142
 30
0.0
 42
0.3152987888789804
  0
VERTEX
  5
1C47
  8
SAPA_PROFIL
 10
-84.999999999009916
 20
-6.4799412904591227
 30
0.0
  0
VERTEX
  5
1C48
  8
SAPA_PROFIL
 10
-84.999999999009916
 20
6.4799412904593501
 30
0.0
 42
0.3152987888789804
  0
VERTEX
  5
1C49
  8
SAPA_PROFIL
 10
-85.657979855684403
 20
7.4196339112453407
 30
0.0
  0
VERTEX
  5
1C4A
  8
SAPA_PROFIL
 10
-89.342020142335855
 20
8.7605149174236203
 30
0.0
 42
-0.3152987888789877
  0
VERTEX
  5
1C4B
  8
SAPA_PROFIL
 10
-89.999999999010356
 20
9.7002075382096091
 30
0.0
  0
VERTEX
  5
1C4C
  8
SAPA_PROFIL
 10
-89.999999999010356
 20
17.732248383857829
 30
0.0
 42
-0.2216946626428921
  0
VERTEX
  5
1C4D
  8
SAPA_PROFIL
 10
-89.821393803853326
 20
18.115270605417091
 30
0.0
  0
VERTEX
  5
1C4E
  8
SAPA_PROFIL
 10
-84.912936216184235
 20
22.233955556880911
 30
0.0
 42
-0.4663076581551056
  0
VERTEX
  5
1C4F
  8
SAPA_PROFIL
 10
-83.404123202713308
 20
21.967911113762401
 30
0.0
  0
VERTEX
  5
1C50
  8
SAPA_PROFIL
 10
-83.096891107686005
 20
21.435769515458901
 30
0.0
 42
0.414213562373157
  0
VERTEX
  5
1C51
  8
SAPA_PROFIL
 10
-82.687083486550705
 20
21.325961894323768
 30
0.0
  0
VERTEX
  5
1C52
  8
SAPA_PROFIL
 10
-81.149999999010447
 20
22.213397459622112
 30
0.0
 42
0.2679491924311554
  0
VERTEX
  5
1C53
  8
SAPA_PROFIL
 10
-80.999999999010356
 20
22.473205080757339
 30
0.0
  0
VERTEX
  5
1C54
  8
SAPA_PROFIL
 10
-80.999999999010356
 20
23.500000000000341
 30
0.0
 42
-0.4142135623730951
  0
VERTEX
  5
1C55
  8
SAPA_PROFIL
 10
-80.699999999010174
 20
23.800000000000519
 30
0.0
  0
VERTEX
  5
1C56
  8
SAPA_PROFIL
 10
-76.999999999010356
 20
23.800000000000072
 30
0.0
 42
-0.4142135623730951
  0
VERTEX
  5
1C57
  8
SAPA_PROFIL
 10
-76.499999999010356
 20
23.300000000000072
 30
0.0
  0
SEQEND
  5
1C58
  8
SAPA_PROFIL
  0
LINE
  5
1099
  8
SAPA_PROFIL
  6
CONTINUOUS
 10
-31.000000000001251
 20
-2.699999999999851
 30
0.0
 11
-32.150000000001342
 21
-2.699999999999851
 31
0.0
  0
ARC
  5
109A
  8
SAPA_PROFIL
  6
CONTINUOUS
 10
-31.000000000001251
 20
-1.699999999999851
 30
0.0
 40
1.0
 50
270.0
 51
0.0
  0
LINE
  5
109B
  8
SAPA_PROFIL
  6
CONTINUOUS
 10
-30.000000000001251
 20
1.7000000000002391
 30
0.0
 11
-30.000000000001251
 21
-1.699999999999851
 31
0.0
  0
ARC
  5
109C
  8
SAPA_PROFIL
  6
CONTINUOUS
 10
-31.000000000001251
 20
1.7000000000002391
 30
0.0
 40
1.0
 50
0.0
 51
90.0
  0
LINE
  5
109D
  8
SAPA_PROFIL
  6
CONTINUOUS
 10
-31.250000000001251
 20
2.7000000000002391
 30
0.0
 11
-31.000000000001251
 21
2.7000000000002391
 31
0.0
  0
LINE
  5
109E
  8
SAPA_PROFIL
  6
CONTINUOUS
 10
-31.250000000001251
 20
2.3500000000001031
 30
0.0
 11
-31.250000000001251
 21
2.7000000000002391
 31
0.0
  0
ARC
  5
109F
  8
SAPA_PROFIL
  6
CONTINUOUS
 10
-31.550000000001472
 20
2.3500000000003398
 30
0.0
 40
0.3000000000002136
 50
245.6347919999638
 51
359.99999999995458
  0
LINE
  5
10A0
  8
SAPA_PROFIL
  6
CONTINUOUS
 10
-33.050000000001198
 20
2.7000000000002391
 30
0.0
 11
-31.673765406425328
 21
2.076719696698285
 31
0.0
  0
LINE
  5
10A1
  8
SAPA_PROFIL
  6
CONTINUOUS
 10
-33.050000000001198
 20
2.3500000000001031
 30
0.0
 11
-33.050000000001198
 21
2.7000000000002391
 31
0.0
  0
ARC
  5
10A2
  8
SAPA_PROFIL
  6
CONTINUOUS
 10
-33.350000000001408
 20
2.3500000000003269
 30
0.0
 40
0.3000000000002059
 50
245.63479199996081
 51
359.99999999995708
  0
LINE
  5
10A3
  8
SAPA_PROFIL
  6
CONTINUOUS
 10
-34.85000000000116
 20
2.7000000000002391
 30
0.0
 11
-33.473765406425287
 21
2.0767196966982859
 31
0.0
  0
LINE
  5
10A4
  8
SAPA_PROFIL
  6
CONTINUOUS
 10
-34.85000000000116
 20
2.3500000000001031
 30
0.0
 11
-34.85000000000116
 21
2.7000000000002391
 31
0.0
  0
ARC
  5
10A5
  8
SAPA_PROFIL
  6
CONTINUOUS
 10
-35.15000000000137
 20
2.3500000000003349
 30
0.0
 40
0.3000000000002098
 50
245.63479199996269
 51
359.99999999995561
  0
LINE
  5
10A6
  8
SAPA_PROFIL
  6
CONTINUOUS
 10
-36.650000000001342
 20
2.70000000000024
 30
0.0
 11
-35.273765406425241
 21
2.0767196966982859
 31
0.0
  0
LINE
  5
10A7
  8
SAPA_PROFIL
  6
CONTINUOUS
 10
-36.650000000001342
 20
2.350000000000104
 30
0.0
 11
-36.650000000001342
 21
2.70000000000024
 31
0.0
  0
ARC
  5
10A8
  8
SAPA_PROFIL
  6
CONTINUOUS
 10
-36.950000000001431
 20
2.3500000000002488
 30
0.0
 40
0.3000000000000873
 50
245.6347919999744
 51
359.9999999999722
  0
LINE
  5
10A9
  8
SAPA_PROFIL
  6
CONTINUOUS
 10
-38.450000000001303
 20
2.70000000000024
 30
0.0
 11
-37.073765406425203
 21
2.0767196966982859
 31
0.0
  0
LINE
  5
10AA
  8
SAPA_PROFIL
  6
CONTINUOUS
 10
-38.450000000001303
 20
2.3499999999998771
 30
0.0
 11
-38.450000000001303
 21
2.70000000000024
 31
0.0
  0
ARC
  5
10AB
  8
SAPA_PROFIL
  6
CONTINUOUS
 10
-38.749999778021817
 20
2.3500001431514401
 30
0.0
 40
0.2999997780205563
 50
245.63481147028381
 51
359.99997266004499
  0
LINE
  5
10AC
  8
SAPA_PROFIL
  6
CONTINUOUS
 10
-40.250000000001251
 20
2.7000000000002409
 30
0.0
 11
-38.873765000001299
 21
2.0767200000002179
 31
0.0
  0
LINE
  5
10AD
  8
SAPA_PROFIL
  6
CONTINUOUS
 10
-40.250000000001251
 20
2.350000000000104
 30
0.0
 11
-40.250000000001251
 21
2.7000000000002409
 31
0.0
  0
ARC
  5
10AE
  8
SAPA_PROFIL
  6
CONTINUOUS
 10
-40.550000000001461
 20
2.350000000000342
 30
0.0
 40
0.3000000000002151
 50
245.63479199996311
 51
359.99999999995458
  0
LINE
  5
10AF
  8
SAPA_PROFIL
  6
CONTINUOUS
 10
-41.450000000001303
 20
2.4282676335112359
 30
0.0
 11
-40.673765406425332
 21
2.0767196966982868
 31
0.0
  0
LINE
  5
10B0
  8
SAPA_PROFIL
  6
CONTINUOUS
 10
-41.450000000001303
 20
-2.6999999999998492
 30
0.0
 11
-41.450000000001303
 21
2.4282676335112359
 31
0.0
  0
LINE
  5
10B1
  8
SAPA_PROFIL
  6
CONTINUOUS
 10
-41.150000000001342
 20
-2.6999999999998492
 30
0.0
 11
-41.450000000001303
 21
-2.6999999999998492
 31
0.0
  0
LINE
  5
10B2
  8
SAPA_PROFIL
  6
CONTINUOUS
 10
-39.773765000001163
 20
-2.076718999999716
 30
0.0
 11
-41.150000000001342
 21
-2.6999999999998492
 31
0.0
  0
ARC
  5
10B3
  8
SAPA_PROFIL
  6
CONTINUOUS
 10
-39.650000233489251
 20
-2.349999849425811
 30
0.0
 40
0.3000002334879022
 50
359.99997124261228
 51
114.36505364112629
  0
LINE
  5
10B4
  8
SAPA_PROFIL
  6
CONTINUOUS
 10
-39.35000000000116
 20
-2.6999999999998501
 30
0.0
 11
-39.350000000001387
 21
-2.349999999999258
 31
0.0
  0
LINE
  5
10B5
  8
SAPA_PROFIL
  6
CONTINUOUS
 10
-37.973765000001208
 20
-2.076718999999716
 30
0.0
 11
-39.35000000000116
 21
-2.6999999999998501
 31
0.0
  0
ARC
  5
10B6
  8
SAPA_PROFIL
  6
CONTINUOUS
 10
-37.850000233489183
 20
-2.3499998494258869
 30
0.0
 40
0.3000002334880159
 50
359.99997124262683
 51
114.36505364114009
  0
LINE
  5
10B7
  8
SAPA_PROFIL
  6
CONTINUOUS
 10
-37.550000000001212
 20
-2.6999999999998501
 30
0.0
 11
-37.550000000001212
 21
-2.349999999999258
 31
0.0
  0
LINE
  5
10B8
  8
SAPA_PROFIL
  6
CONTINUOUS
 10
-36.173765000001247
 20
-2.076718999999716
 30
0.0
 11
-37.550000000001212
 21
-2.6999999999998501
 31
0.0
  0
ARC
  5
10B9
  8
SAPA_PROFIL
  6
CONTINUOUS
 10
-36.050000233489229
 20
-2.3499998494258878
 30
0.0
 40
0.3000002334880159
 50
359.99997124262683
 51
114.36505364114009
  0
LINE
  5
10BA
  8
SAPA_PROFIL
  6
CONTINUOUS
 10
-35.750000000001251
 20
-2.6999999999998501
 30
0.0
 11
-35.750000000001251
 21
-2.3499999999992589
 31
0.0
  0
LINE
  5
10BB
  8
SAPA_PROFIL
  6
CONTINUOUS
 10
-34.373765000001299
 20
-2.0767189999997169
 30
0.0
 11
-35.750000000001251
 21
-2.6999999999998501
 31
0.0
  0
ARC
  5
10BC
  8
SAPA_PROFIL
  6
CONTINUOUS
 10
-34.250000233489267
 20
-2.349999849425886
 30
0.0
 40
0.3000002334880159
 50
359.99997124262632
 51
114.36505364114031
  0
LINE
  5
10BD
  8
SAPA_PROFIL
  6
CONTINUOUS
 10
-33.950000000001303
 20
-2.6999999999998501
 30
0.0
 11
-33.950000000001303
 21
-2.3499999999992589
 31
0.0
  0
LINE
  5
10BE
  8
SAPA_PROFIL
  6
CONTINUOUS
 10
-32.573765000001337
 20
-2.0767189999997169
 30
0.0
 11
-33.950000000001303
 21
-2.6999999999998501
 31
0.0
  0
ARC
  5
10BF
  8
SAPA_PROFIL
  6
CONTINUOUS
 10
-32.450000233489327
 20
-2.3499998494258909
 30
0.0
 40
0.300000233488023
 50
359.99997124262728
 51
114.3650536411387
  0
LINE
  5
10C0
  8
SAPA_PROFIL
  6
CONTINUOUS
 10
-32.150000000001342
 20
-2.699999999999851
 30
0.0
 11
-32.150000000001342
 21
-2.3499999999992598
 31
0.0
  0
POLYLINE
  5
10C1
  8
SAPA_PROFIL
  6
CONTINUOUS
 66
     1
 10
0.0
 20
0.0
 30
0.0
 70
   129
  0
VERTEX
  5
1C59
  8
SAPA_PROFIL
  6
CONTINUOUS
 10
-32.150000000001292
 20
-2.6999999999998181
 30
0.0
  0
VERTEX
  5
1C5A
  8
SAPA_PROFIL
  6
CONTINUOUS
 10
-32.150000000001292
 20
-2.3499999999993402
 30
0.0
 42
0.5450200690651577
  0
VERTEX
  5
1C5B
  8
SAPA_PROFIL
  6
CONTINUOUS
 10
-32.573765000001288
 20
-2.076718999999684
 30
0.0
  0
VERTEX
  5
1C5C
  8
SAPA_PROFIL
  6
CONTINUOUS
 10
-33.950000000001239
 20
-2.6999999999998181
 30
0.0
  0
VERTEX
  5
1C5D
  8
SAPA_PROFIL
  6
CONTINUOUS
 10
-33.950000000001303
 20
-2.3499999999993402
 30
0.0
 42
0.545020069065169
  0
VERTEX
  5
1C5E
  8
SAPA_PROFIL
  6
CONTINUOUS
 10
-34.373765000001242
 20
-2.076718999999684
 30
0.0
  0
VERTEX
  5
1C5F
  8
SAPA_PROFIL
  6
CONTINUOUS
 10
-35.750000000001251
 20
-2.6999999999998181
 30
0.0
  0
VERTEX
  5
1C60
  8
SAPA_PROFIL
  6
CONTINUOUS
 10
-35.750000000001307
 20
-2.3499999999993402
 30
0.0
 42
0.5450200690651634
  0
VERTEX
  5
1C61
  8
SAPA_PROFIL
  6
CONTINUOUS
 10
-36.173765000001247
 20
-2.076718999999684
 30
0.0
  0
VERTEX
  5
1C62
  8
SAPA_PROFIL
  6
CONTINUOUS
 10
-37.550000000001262
 20
-2.6999999999998181
 30
0.0
  0
VERTEX
  5
1C63
  8
SAPA_PROFIL
  6
CONTINUOUS
 10
-37.550000000001262
 20
-2.3499999999993402
 30
0.0
 42
0.5450200690651634
  0
VERTEX
  5
1C64
  8
SAPA_PROFIL
  6
CONTINUOUS
 10
-37.973765000001258
 20
-2.076718999999684
 30
0.0
  0
VERTEX
  5
1C65
  8
SAPA_PROFIL
  6
CONTINUOUS
 10
-39.35000000000128
 20
-2.6999999999998181
 30
0.0
  0
VERTEX
  5
1C66
  8
SAPA_PROFIL
  6
CONTINUOUS
 10
-39.35000000000133
 20
-2.3499999999993402
 30
0.0
 42
0.545020069065169
  0
VERTEX
  5
1C67
  8
SAPA_PROFIL
  6
CONTINUOUS
 10
-39.77376500000122
 20
-2.076718999999684
 30
0.0
  0
VERTEX
  5
1C68
  8
SAPA_PROFIL
  6
CONTINUOUS
 10
-41.150000000001278
 20
-2.6999999999998181
 30
0.0
  0
VERTEX
  5
1C69
  8
SAPA_PROFIL
  6
CONTINUOUS
 10
-41.450000000001232
 20
-2.6999999999998181
 30
0.0
  0
VERTEX
  5
1C6A
  8
SAPA_PROFIL
  6
CONTINUOUS
 10
-41.450000000001232
 20
2.4282676335112678
 30
0.0
  0
VERTEX
  5
1C6B
  8
SAPA_PROFIL
  6
CONTINUOUS
 10
-40.673765406425268
 20
2.0767196966983188
 30
0.0
 42
0.5450207798987302
  0
VERTEX
  5
1C6C
  8
SAPA_PROFIL
  6
CONTINUOUS
 10
-40.250000000001251
 20
2.350000000000136
 30
0.0
  0
VERTEX
  5
1C6D
  8
SAPA_PROFIL
  6
CONTINUOUS
 10
-40.250000000001251
 20
2.700000000000272
 30
0.0
  0
VERTEX
  5
1C6E
  8
SAPA_PROFIL
  6
CONTINUOUS
 10
-38.873765000001242
 20
2.0767200000002499
 30
0.0
 42
0.5450205149791647
  0
VERTEX
  5
1C6F
  8
SAPA_PROFIL
  6
CONTINUOUS
 10
-38.450000000001303
 20
2.3499999999999091
 30
0.0
  0
VERTEX
  5
1C70
  8
SAPA_PROFIL
  6
CONTINUOUS
 10
-38.450000000001239
 20
2.700000000000272
 30
0.0
  0
VERTEX
  5
1C71
  8
SAPA_PROFIL
  6
CONTINUOUS
 10
-37.073765406425252
 20
2.0767196966983188
 30
0.0
 42
0.5450207798987699
  0
VERTEX
  5
1C72
  8
SAPA_PROFIL
  6
CONTINUOUS
 10
-36.650000000001292
 20
2.350000000000136
 30
0.0
  0
VERTEX
  5
1C73
  8
SAPA_PROFIL
  6
CONTINUOUS
 10
-36.650000000001292
 20
2.700000000000272
 30
0.0
  0
VERTEX
  5
1C74
  8
SAPA_PROFIL
  6
CONTINUOUS
 10
-35.273765406425241
 20
2.0767196966983188
 30
0.0
 42
0.5450207798987417
  0
VERTEX
  5
1C75
  8
SAPA_PROFIL
  6
CONTINUOUS
 10
-34.850000000001273
 20
2.350000000000136
 30
0.0
  0
VERTEX
  5
1C76
  8
SAPA_PROFIL
  6
CONTINUOUS
 10
-34.850000000001273
 20
2.700000000000272
 30
0.0
  0
VERTEX
  5
1C77
  8
SAPA_PROFIL
  6
CONTINUOUS
 10
-33.47376540642523
 20
2.0767196966983188
 30
0.0
 42
0.5450207798987586
  0
VERTEX
  5
1C78
  8
SAPA_PROFIL
  6
CONTINUOUS
 10
-33.050000000001262
 20
2.350000000000136
 30
0.0
  0
VERTEX
  5
1C79
  8
SAPA_PROFIL
  6
CONTINUOUS
 10
-33.050000000001262
 20
2.700000000000272
 30
0.0
  0
VERTEX
  5
1C7A
  8
SAPA_PROFIL
  6
CONTINUOUS
 10
-31.673765406425279
 20
2.0767196966983188
 30
0.0
 42
0.5450207798987302
  0
VERTEX
  5
1C7B
  8
SAPA_PROFIL
  6
CONTINUOUS
 10
-31.250000000001251
 20
2.350000000000136
 30
0.0
  0
VERTEX
  5
1C7C
  8
SAPA_PROFIL
  6
CONTINUOUS
 10
-31.250000000001251
 20
2.700000000000272
 30
0.0
  0
VERTEX
  5
1C7D
  8
SAPA_PROFIL
  6
CONTINUOUS
 10
-31.000000000001251
 20
2.700000000000272
 30
0.0
 42
-0.4142135623730951
  0
VERTEX
  5
1C7E
  8
SAPA_PROFIL
  6
CONTINUOUS
 10
-30.000000000001251
 20
1.700000000000272
 30
0.0
  0
VERTEX
  5
1C7F
  8
SAPA_PROFIL
  6
CONTINUOUS
 10
-30.000000000001251
 20
-1.6999999999998181
 30
0.0
 42
-0.4142135623730951
  0
VERTEX
  5
1C80
  8
SAPA_PROFIL
  6
CONTINUOUS
 10
-31.000000000001251
 20
-2.6999999999998181
 30
0.0
  0
SEQEND
  5
1C81
  8
SAPA_PROFIL
  6
CONTINUOUS
  0
POLYLINE
  5
10C2
  8
SAPA_PROFIL
  6
CONTINUOUS
 66
     1
 10
0.0
 20
0.0
 30
0.0
 70
   129
  0
VERTEX
  5
1C82
  8
SAPA_PROFIL
  6
CONTINUOUS
 10
-51.56213200000127
 20
-2.2378679999997071
 30
0.0
  0
VERTEX
  5
1C83
  8
SAPA_PROFIL
  6
CONTINUOUS
 10
-52.500000000001251
 20
-3.075735999999778
 30
0.0
  0
VERTEX
  5
1C84
  8
SAPA_PROFIL
  6
CONTINUOUS
 10
-52.500000000001251
 20
-4.6999999999998181
 30
0.0
 42
0.4142135623730951
  0
VERTEX
  5
1C85
  8
SAPA_PROFIL
  6
CONTINUOUS
 10
-52.200000000001239
 20
-4.9999999999997717
 30
0.0
  0
VERTEX
  5
1C86
  8
SAPA_PROFIL
  6
CONTINUOUS
 10
-31.000000000001251
 20
-4.9999999999997717
 30
0.0
 42
-0.4142135623730951
  0
VERTEX
  5
1C87
  8
SAPA_PROFIL
  6
CONTINUOUS
 10
-30.000000000001251
 20
-5.9999999999997717
 30
0.0
  0
VERTEX
  5
1C88
  8
SAPA_PROFIL
  6
CONTINUOUS
 10
-30.000000000001251
 20
-14.19999999999982
 30
0.0
 42
-0.4142135623730951
  0
VERTEX
  5
1C89
  8
SAPA_PROFIL
  6
CONTINUOUS
 10
-30.500000000001251
 20
-14.69999999999982
 30
0.0
  0
VERTEX
  5
1C8A
  8
SAPA_PROFIL
  6
CONTINUOUS
 10
-33.700000000001239
 20
-14.69999999999982
 30
0.0
 42
-0.4142135623730951
  0
VERTEX
  5
1C8B
  8
SAPA_PROFIL
  6
CONTINUOUS
 10
-34.200000000001239
 20
-14.19999999999982
 30
0.0
  0
VERTEX
  5
1C8C
  8
SAPA_PROFIL
  6
CONTINUOUS
 10
-34.200000000001239
 20
-11.299999999999731
 30
0.0
 42
0.4142135623730951
  0
VERTEX
  5
1C8D
  8
SAPA_PROFIL
  6
CONTINUOUS
 10
-34.500000000001251
 20
-10.999999999999771
 30
0.0
  0
VERTEX
  5
1C8E
  8
SAPA_PROFIL
  6
CONTINUOUS
 10
-35.200000000001239
 20
-10.999999999999771
 30
0.0
 42
0.4142135623730951
  0
VERTEX
  5
1C8F
  8
SAPA_PROFIL
  6
CONTINUOUS
 10
-35.500000000001251
 20
-11.299999999999731
 30
0.0
  0
VERTEX
  5
1C90
  8
SAPA_PROFIL
  6
CONTINUOUS
 10
-35.500000000001251
 20
-17.999999999999769
 30
0.0
  0
VERTEX
  5
1C91
  8
SAPA_PROFIL
  6
CONTINUOUS
 10
-35.035076580642283
 20
-18.586384015500698
 30
0.0
 42
0.7105995019814529
  0
VERTEX
  5
1C92
  8
SAPA_PROFIL
  6
CONTINUOUS
 10
-34.500000000001251
 20
-18.39999999999975
 30
0.0
  0
VERTEX
  5
1C93
  8
SAPA_PROFIL
  6
CONTINUOUS
 10
-34.500000000001251
 20
-16.499999999999769
 30
0.0
 42
-0.4142135623730951
  0
VERTEX
  5
1C94
  8
SAPA_PROFIL
  6
CONTINUOUS
 10
-34.200000000001239
 20
-16.199999999999822
 30
0.0
  0
VERTEX
  5
1C95
  8
SAPA_PROFIL
  6
CONTINUOUS
 10
-30.300000000001258
 20
-16.199999999999822
 30
0.0
 42
-0.4142135623730951
  0
VERTEX
  5
1C96
  8
SAPA_PROFIL
  6
CONTINUOUS
 10
-30.000000000001251
 20
-16.499999999999769
 30
0.0
  0
VERTEX
  5
1C97
  8
SAPA_PROFIL
  6
CONTINUOUS
 10
-30.000000000001251
 20
-23.39999999999975
 30
0.0
 42
-0.4142135623730951
  0
VERTEX
  5
1C98
  8
SAPA_PROFIL
  6
CONTINUOUS
 10
-30.300000000001258
 20
-23.699999999999822
 30
0.0
  0
VERTEX
  5
1C99
  8
SAPA_PROFIL
  6
CONTINUOUS
 10
-34.200000000001239
 20
-23.699999999999822
 30
0.0
 42
-0.4142135623730951
  0
VERTEX
  5
1C9A
  8
SAPA_PROFIL
  6
CONTINUOUS
 10
-34.500000000001251
 20
-23.39999999999975
 30
0.0
  0
VERTEX
  5
1C9B
  8
SAPA_PROFIL
  6
CONTINUOUS
 10
-34.500000000001251
 20
-21.999999999999769
 30
0.0
 42
0.7105990647993644
  0
VERTEX
  5
1C9C
  8
SAPA_PROFIL
  6
CONTINUOUS
 10
-35.035076000001027
 20
-21.813615999999911
 30
0.0
  0
VERTEX
  5
1C9D
  8
SAPA_PROFIL
  6
CONTINUOUS
 10
-35.500000000001251
 20
-22.39999999999975
 30
0.0
  0
VERTEX
  5
1C9E
  8
SAPA_PROFIL
  6
CONTINUOUS
 10
-35.500000000001251
 20
-24.699999999999822
 30
0.0
 42
0.4142135623730951
  0
VERTEX
  5
1C9F
  8
SAPA_PROFIL
  6
CONTINUOUS
 10
-35.200000000001239
 20
-24.999999999999769
 30
0.0
  0
VERTEX
  5
1CA0
  8
SAPA_PROFIL
  6
CONTINUOUS
 10
23.999999999998749
 20
-24.999999999999769
 30
0.0
 42
0.4142135623730951
  0
VERTEX
  5
1CA1
  8
SAPA_PROFIL
  6
CONTINUOUS
 10
24.499999999998749
 20
-24.499999999999769
 30
0.0
  0
VERTEX
  5
1CA2
  8
SAPA_PROFIL
  6
CONTINUOUS
 10
24.499999999998749
 20
24.500000000000231
 30
0.0
 42
0.4142135623730951
  0
VERTEX
  5
1CA3
  8
SAPA_PROFIL
  6
CONTINUOUS
 10
23.999999999998749
 20
25.000000000000231
 30
0.0
  0
VERTEX
  5
1CA4
  8
SAPA_PROFIL
  6
CONTINUOUS
 10
-35.200000000001239
 20
25.000000000000231
 30
0.0
 42
0.4142135623730951
  0
VERTEX
  5
1CA5
  8
SAPA_PROFIL
  6
CONTINUOUS
 10
-35.500000000001251
 20
24.700000000000269
 30
0.0
  0
VERTEX
  5
1CA6
  8
SAPA_PROFIL
  6
CONTINUOUS
 10
-35.500000000001251
 20
22.400000000000318
 30
0.0
  0
VERTEX
  5
1CA7
  8
SAPA_PROFIL
  6
CONTINUOUS
 10
-35.035076580642283
 20
21.813615984499169
 30
0.0
 42
0.7105995019814529
  0
VERTEX
  5
1CA8
  8
SAPA_PROFIL
  6
CONTINUOUS
 10
-34.500000000001251
 20
22.000000000000231
 30
0.0
  0
VERTEX
  5
1CA9
  8
SAPA_PROFIL
  6
CONTINUOUS
 10
-34.500000000001251
 20
23.400000000000318
 30
0.0
 42
-0.4142135623730951
  0
VERTEX
  5
1CAA
  8
SAPA_PROFIL
  6
CONTINUOUS
 10
-34.200000000001239
 20
23.700000000000269
 30
0.0
  0
VERTEX
  5
1CAB
  8
SAPA_PROFIL
  6
CONTINUOUS
 10
-30.300000000001258
 20
23.700000000000269
 30
0.0
 42
-0.4142135623730951
  0
VERTEX
  5
1CAC
  8
SAPA_PROFIL
  6
CONTINUOUS
 10
-30.000000000001251
 20
23.400000000000318
 30
0.0
  0
VERTEX
  5
1CAD
  8
SAPA_PROFIL
  6
CONTINUOUS
 10
-30.000000000001251
 20
16.500000000000231
 30
0.0
 42
-0.4142135623730951
  0
VERTEX
  5
1CAE
  8
SAPA_PROFIL
  6
CONTINUOUS
 10
-30.300000000001258
 20
16.200000000000269
 30
0.0
  0
VERTEX
  5
1CAF
  8
SAPA_PROFIL
  6
CONTINUOUS
 10
-34.200000000001239
 20
16.200000000000269
 30
0.0
 42
-0.4142135623730951
  0
VERTEX
  5
1CB0
  8
SAPA_PROFIL
  6
CONTINUOUS
 10
-34.500000000001251
 20
16.500000000000231
 30
0.0
  0
VERTEX
  5
1CB1
  8
SAPA_PROFIL
  6
CONTINUOUS
 10
-34.500000000001251
 20
18.400000000000318
 30
0.0
 42
0.7105995019814529
  0
VERTEX
  5
1CB2
  8
SAPA_PROFIL
  6
CONTINUOUS
 10
-35.035076580642283
 20
18.586384015500919
 30
0.0
  0
VERTEX
  5
1CB3
  8
SAPA_PROFIL
  6
CONTINUOUS
 10
-35.500000000001251
 20
18.000000000000231
 30
0.0
  0
VERTEX
  5
1CB4
  8
SAPA_PROFIL
  6
CONTINUOUS
 10
-35.500000000001251
 20
11.30000000000018
 30
0.0
 42
0.4142135623730951
  0
VERTEX
  5
1CB5
  8
SAPA_PROFIL
  6
CONTINUOUS
 10
-35.200000000001239
 20
11.00000000000022
 30
0.0
  0
VERTEX
  5
1CB6
  8
SAPA_PROFIL
  6
CONTINUOUS
 10
-34.500000000001251
 20
11.00000000000022
 30
0.0
 42
0.4142135623730951
  0
VERTEX
  5
1CB7
  8
SAPA_PROFIL
  6
CONTINUOUS
 10
-34.200000000001239
 20
11.30000000000018
 30
0.0
  0
VERTEX
  5
1CB8
  8
SAPA_PROFIL
  6
CONTINUOUS
 10
-34.200000000001239
 20
14.200000000000269
 30
0.0
 42
-0.4142135623730951
  0
VERTEX
  5
1CB9
  8
SAPA_PROFIL
  6
CONTINUOUS
 10
-33.700000000001239
 20
14.700000000000269
 30
0.0
  0
VERTEX
  5
1CBA
  8
SAPA_PROFIL
  6
CONTINUOUS
 10
-30.500000000001251
 20
14.700000000000269
 30
0.0
 42
-0.4142135623730951
  0
VERTEX
  5
1CBB
  8
SAPA_PROFIL
  6
CONTINUOUS
 10
-30.000000000001251
 20
14.200000000000269
 30
0.0
  0
VERTEX
  5
1CBC
  8
SAPA_PROFIL
  6
CONTINUOUS
 10
-30.000000000001251
 20
6.0000000000002274
 30
0.0
 42
-0.4142135623730951
  0
VERTEX
  5
1CBD
  8
SAPA_PROFIL
  6
CONTINUOUS
 10
-31.000000000001251
 20
5.0000000000002274
 30
0.0
  0
VERTEX
  5
1CBE
  8
SAPA_PROFIL
  6
CONTINUOUS
 10
-52.200000000001239
 20
5.0000000000002274
 30
0.0
 42
0.4142135623730951
  0
VERTEX
  5
1CBF
  8
SAPA_PROFIL
  6
CONTINUOUS
 10
-52.500000000001251
 20
4.700000000000272
 30
0.0
  0
VERTEX
  5
1CC0
  8
SAPA_PROFIL
  6
CONTINUOUS
 10
-52.500000000001251
 20
3.0757360000002332
 30
0.0
  0
VERTEX
  5
1CC1
  8
SAPA_PROFIL
  6
CONTINUOUS
 10
-51.562132034357262
 20
2.2378679656442269
 30
0.0
 42
0.6681786379193053
  0
VERTEX
  5
1CC2
  8
SAPA_PROFIL
  6
CONTINUOUS
 10
-51.050000000001262
 20
2.450000000000272
 30
0.0
  0
VERTEX
  5
1CC3
  8
SAPA_PROFIL
  6
CONTINUOUS
 10
-51.050000000001262
 20
2.700000000000272
 30
0.0
  0
VERTEX
  5
1CC4
  8
SAPA_PROFIL
  6
CONTINUOUS
 10
-49.673765406425268
 20
2.1767196966982278
 30
0.0
 42
0.545020779898719
  0
VERTEX
  5
1CC5
  8
SAPA_PROFIL
  6
CONTINUOUS
 10
-49.250000000001251
 20
2.450000000000272
 30
0.0
  0
VERTEX
  5
1CC6
  8
SAPA_PROFIL
  6
CONTINUOUS
 10
-49.250000000001251
 20
2.700000000000272
 30
0.0
  0
VERTEX
  5
1CC7
  8
SAPA_PROFIL
  6
CONTINUOUS
 10
-47.873765406425257
 20
2.1767196966982278
 30
0.0
 42
0.545020779898719
  0
VERTEX
  5
1CC8
  8
SAPA_PROFIL
  6
CONTINUOUS
 10
-47.450000000001239
 20
2.450000000000272
 30
0.0
  0
VERTEX
  5
1CC9
  8
SAPA_PROFIL
  6
CONTINUOUS
 10
-47.450000000001239
 20
2.700000000000272
 30
0.0
  0
VERTEX
  5
1CCA
  8
SAPA_PROFIL
  6
CONTINUOUS
 10
-46.073765406425252
 20
2.1767196966982278
 30
0.0
 42
0.545020779898736
  0
VERTEX
  5
1CCB
  8
SAPA_PROFIL
  6
CONTINUOUS
 10
-45.650000000001278
 20
2.450000000000272
 30
0.0
  0
VERTEX
  5
1CCC
  8
SAPA_PROFIL
  6
CONTINUOUS
 10
-45.650000000001278
 20
2.700000000000272
 30
0.0
  0
VERTEX
  5
1CCD
  8
SAPA_PROFIL
  6
CONTINUOUS
 10
-44.273765406425241
 20
2.1767196966982278
 30
0.0
 42
0.545020779898719
  0
VERTEX
  5
1CCE
  8
SAPA_PROFIL
  6
CONTINUOUS
 10
-43.850000000001273
 20
2.450000000000272
 30
0.0
  0
VERTEX
  5
1CCF
  8
SAPA_PROFIL
  6
CONTINUOUS
 10
-43.850000000001273
 20
2.700000000000272
 30
0.0
  0
VERTEX
  5
1CD0
  8
SAPA_PROFIL
  6
CONTINUOUS
 10
-43.126282705195251
 20
2.4722372826162191
 30
0.0
 42
-0.2945484962563007
  0
VERTEX
  5
1CD1
  8
SAPA_PROFIL
  6
CONTINUOUS
 10
-42.950048040247161
 20
2.1988824689376538
 30
0.0
  0
VERTEX
  5
1CD2
  8
SAPA_PROFIL
  6
CONTINUOUS
 10
-42.950255222213222
 20
1.2642999377483191
 30
0.0
 42
0.3475954753796602
  0
VERTEX
  5
1CD3
  8
SAPA_PROFIL
  6
CONTINUOUS
 10
-42.719501178044361
 20
0.9723265106777034
 30
0.0
 42
-0.7905229096113223
  0
VERTEX
  5
1CD4
  8
SAPA_PROFIL
  6
CONTINUOUS
 10
-42.71949097360374
 20
-0.9736640898653377
 30
0.0
 42
0.3476065658631347
  0
VERTEX
  5
1CD5
  8
SAPA_PROFIL
  6
CONTINUOUS
 10
-42.950241952335602
 20
-1.2656518108867649
 30
0.0
  0
VERTEX
  5
1CD6
  8
SAPA_PROFIL
  6
CONTINUOUS
 10
-42.950095231627238
 20
-1.8499926620927449
 30
0.0
 42
-0.4102317530969934
  0
VERTEX
  5
1CD7
  8
SAPA_PROFIL
  6
CONTINUOUS
 10
-43.245946879780718
 20
-2.1500282985803092
 30
0.0
 42
0.0712587206050408
  0
VERTEX
  5
1CD8
  8
SAPA_PROFIL
  6
CONTINUOUS
 10
-43.329990804709212
 20
-2.1632556124548041
 30
0.0
  0
VERTEX
  5
1CD9
  8
SAPA_PROFIL
  6
CONTINUOUS
 10
-44.750000000001243
 20
-2.6999999999998181
 30
0.0
  0
VERTEX
  5
1CDA
  8
SAPA_PROFIL
  6
CONTINUOUS
 10
-44.750000000001243
 20
-2.4499999999998181
 30
0.0
 42
0.5450200690651634
  0
VERTEX
  5
1CDB
  8
SAPA_PROFIL
  6
CONTINUOUS
 10
-45.173765000001083
 20
-2.1767189999995931
 30
0.0
  0
VERTEX
  5
1CDC
  8
SAPA_PROFIL
  6
CONTINUOUS
 10
-46.550000000001262
 20
-2.6999999999998181
 30
0.0
  0
VERTEX
  5
1CDD
  8
SAPA_PROFIL
  6
CONTINUOUS
 10
-46.550000000001262
 20
-2.4499999999998181
 30
0.0
 42
0.5450200690651803
  0
VERTEX
  5
1CDE
  8
SAPA_PROFIL
  6
CONTINUOUS
 10
-46.973765000001087
 20
-2.1767189999995931
 30
0.0
  0
VERTEX
  5
1CDF
  8
SAPA_PROFIL
  6
CONTINUOUS
 10
-48.350000000001273
 20
-2.6999999999998181
 30
0.0
  0
VERTEX
  5
1CE0
  8
SAPA_PROFIL
  6
CONTINUOUS
 10
-48.350000000001273
 20
-2.4499999999998181
 30
0.0
 42
0.545020069065169
  0
VERTEX
  5
1CE1
  8
SAPA_PROFIL
  6
CONTINUOUS
 10
-48.773765000001099
 20
-2.1767189999995931
 30
0.0
  0
VERTEX
  5
1CE2
  8
SAPA_PROFIL
  6
CONTINUOUS
 10
-50.150000000001278
 20
-2.6999999999998181
 30
0.0
  0
VERTEX
  5
1CE3
  8
SAPA_PROFIL
  6
CONTINUOUS
 10
-50.150000000001278
 20
-2.1499999999998631
 30
0.0
  0
VERTEX
  5
1CE4
  8
SAPA_PROFIL
  6
CONTINUOUS
 10
-51.350000000001273
 20
-2.1499999999998631
 30
0.0
 42
0.1989123673796988
  0
SEQEND
  5
1CE5
  8
SAPA_PROFIL
  6
CONTINUOUS
  0
POLYLINE
  5
10C3
  8
SAPA_PROFIL
  6
CONTINUOUS
 66
     1
 10
0.0
 20
0.0
 30
0.0
 70
   129
  0
VERTEX
  5
1CE6
  8
SAPA_PROFIL
  6
CONTINUOUS
 10
22.499999999998469
 20
22.200000000000049
 30
0.0
 42
0.4142140000000055
  0
VERTEX
  5
1CE7
  8
SAPA_PROFIL
  6
CONTINUOUS
 10
21.499999999998749
 20
23.200000000000269
 30
0.0
  0
VERTEX
  5
1CE8
  8
SAPA_PROFIL
  6
CONTINUOUS
 10
18.224264068710738
 20
23.200000000000269
 30
0.0
 42
0.198912367379658
  0
VERTEX
  5
1CE9
  8
SAPA_PROFIL
  6
CONTINUOUS
 10
18.01213203435475
 20
23.11213203435614
 30
0.0
  0
VERTEX
  5
1CEA
  8
SAPA_PROFIL
  6
CONTINUOUS
 10
16.087867965642712
 20
21.187867965644269
 30
0.0
 42
-0.198912367379717
  0
VERTEX
  5
1CEB
  8
SAPA_PROFIL
  6
CONTINUOUS
 10
15.87573593128678
 20
21.10000000000014
 30
0.0
  0
VERTEX
  5
1CEC
  8
SAPA_PROFIL
  6
CONTINUOUS
 10
15.299999999998761
 20
21.10000000000014
 30
0.0
 42
-0.4142135623730951
  0
VERTEX
  5
1CED
  8
SAPA_PROFIL
  6
CONTINUOUS
 10
14.999999999998749
 20
21.400000000000318
 30
0.0
  0
VERTEX
  5
1CEE
  8
SAPA_PROFIL
  6
CONTINUOUS
 10
14.999999999998691
 20
22.900000000000318
 30
0.0
 42
0.4142135623730951
  0
VERTEX
  5
1CEF
  8
SAPA_PROFIL
  6
CONTINUOUS
 10
14.69999999999874
 20
23.200000000000269
 30
0.0
  0
VERTEX
  5
1CF0
  8
SAPA_PROFIL
  6
CONTINUOUS
 10
9.9999999999987494
 20
23.200000000000269
 30
0.0
 42
0.4142135623730951
  0
VERTEX
  5
1CF1
  8
SAPA_PROFIL
  6
CONTINUOUS
 10
8.9999999999987494
 20
22.200000000000269
 30
0.0
  0
VERTEX
  5
1CF2
  8
SAPA_PROFIL
  6
CONTINUOUS
 10
8.9999999999986926
 20
17.600000000000129
 30
0.0
 42
-0.4142135623730951
  0
VERTEX
  5
1CF3
  8
SAPA_PROFIL
  6
CONTINUOUS
 10
8.6999999999987381
 20
17.300000000000178
 30
0.0
  0
VERTEX
  5
1CF4
  8
SAPA_PROFIL
  6
CONTINUOUS
 10
6.3999999999987827
 20
17.300000000000178
 30
0.0
 42
-0.4142135623730951
  0
VERTEX
  5
1CF5
  8
SAPA_PROFIL
  6
CONTINUOUS
 10
6.0999999999987153
 20
17.600000000000129
 30
0.0
  0
VERTEX
  5
1CF6
  8
SAPA_PROFIL
  6
CONTINUOUS
 10
6.0999999999987153
 20
18.100000000000129
 30
0.0
 42
-0.4142135623730951
  0
VERTEX
  5
1CF7
  8
SAPA_PROFIL
  6
CONTINUOUS
 10
6.3999999999987827
 20
18.400000000000318
 30
0.0
  0
VERTEX
  5
1CF8
  8
SAPA_PROFIL
  6
CONTINUOUS
 10
6.7366269246332422
 20
18.400000000000201
 30
0.0
 42
0.5535245743249283
  0
VERTEX
  5
1CF9
  8
SAPA_PROFIL
  6
CONTINUOUS
 10
4.96410760212376
 20
22.710554211531189
 30
0.0
  0
VERTEX
  5
1CFA
  8
SAPA_PROFIL
  6
CONTINUOUS
 10
4.6767766952953593
 20
22.42322330470347
 30
0.0
 42
-0.4142135623729314
  0
VERTEX
  5
1CFB
  8
SAPA_PROFIL
  6
CONTINUOUS
 10
4.3232233047017408
 20
22.423223304703239
 30
0.0
  0
VERTEX
  5
1CFC
  8
SAPA_PROFIL
  6
CONTINUOUS
 10
4.0358923978740791
 20
22.71055421153153
 30
0.0
 42
0.5535245743249283
  0
VERTEX
  5
1CFD
  8
SAPA_PROFIL
  6
CONTINUOUS
 10
2.2633730753637451
 20
18.400000000000318
 30
0.0
  0
VERTEX
  5
1CFE
  8
SAPA_PROFIL
  6
CONTINUOUS
 10
2.5999999999987149
 20
18.400000000000318
 30
0.0
 42
-0.4142135623730951
  0
VERTEX
  5
1CFF
  8
SAPA_PROFIL
  6
CONTINUOUS
 10
2.8999999999987831
 20
18.100000000000129
 30
0.0
  0
VERTEX
  5
1D00
  8
SAPA_PROFIL
  6
CONTINUOUS
 10
2.8999999999987831
 20
17.600000000000129
 30
0.0
 42
-0.4142135623730951
  0
VERTEX
  5
1D01
  8
SAPA_PROFIL
  6
CONTINUOUS
 10
2.5999999999987149
 20
17.300000000000178
 30
0.0
  0
VERTEX
  5
1D02
  8
SAPA_PROFIL
  6
CONTINUOUS
 10
1.499999999998749
 20
17.300000000000178
 30
0.0
 42
-0.4142135623730951
  0
VERTEX
  5
1D03
  8
SAPA_PROFIL
  6
CONTINUOUS
 10
-0.0000000000012506
 20
18.800000000000178
 30
0.0
  0
VERTEX
  5
1D04
  8
SAPA_PROFIL
  6
CONTINUOUS
 10
-0.0000000000012506
 20
21.833974596216201
 30
0.0
 42
-0.2679491924311181
  0
VERTEX
  5
1D05
  8
SAPA_PROFIL
  6
CONTINUOUS
 10
0.2499999999987494
 20
22.266987298107999
 30
0.0
 42
0.7673269879789605
  0
VERTEX
  5
1D06
  8
SAPA_PROFIL
  6
CONTINUOUS
 10
-0.0000000000012506
 20
23.200000000000269
 30
0.0
  0
VERTEX
  5
1D07
  8
SAPA_PROFIL
  6
CONTINUOUS
 10
-15.000000000001251
 20
23.200000000000269
 30
0.0
 42
0.4142135623730951
  0
VERTEX
  5
1D08
  8
SAPA_PROFIL
  6
CONTINUOUS
 10
-16.000000000001251
 20
22.200000000000269
 30
0.0
  0
VERTEX
  5
1D09
  8
SAPA_PROFIL
  6
CONTINUOUS
 10
-16.000000000001251
 20
17.600000000000129
 30
0.0
 42
-0.4142135623730951
  0
VERTEX
  5
1D0A
  8
SAPA_PROFIL
  6
CONTINUOUS
 10
-16.300000000001258
 20
17.300000000000178
 30
0.0
  0
VERTEX
  5
1D0B
  8
SAPA_PROFIL
  6
CONTINUOUS
 10
-18.60000000000127
 20
17.300000000000178
 30
0.0
 42
-0.4142135623730951
  0
VERTEX
  5
1D0C
  8
SAPA_PROFIL
  6
CONTINUOUS
 10
-18.900000000001281
 20
17.600000000000129
 30
0.0
  0
VERTEX
  5
1D0D
  8
SAPA_PROFIL
  6
CONTINUOUS
 10
-18.900000000001281
 20
18.100000000000129
 30
0.0
 42
-0.4142135623730951
  0
VERTEX
  5
1D0E
  8
SAPA_PROFIL
  6
CONTINUOUS
 10
-18.60000000000127
 20
18.400000000000318
 30
0.0
  0
VERTEX
  5
1D0F
  8
SAPA_PROFIL
  6
CONTINUOUS
 10
-18.263373075366751
 20
18.400000000000201
 30
0.0
 42
0.5535245743249283
  0
VERTEX
  5
1D10
  8
SAPA_PROFIL
  6
CONTINUOUS
 10
-20.035892397876239
 20
22.710554211531189
 30
0.0
  0
VERTEX
  5
1D11
  8
SAPA_PROFIL
  6
CONTINUOUS
 10
-20.323223304704641
 20
22.42322330470347
 30
0.0
 42
-0.4142135623730236
  0
VERTEX
  5
1D12
  8
SAPA_PROFIL
  6
CONTINUOUS
 10
-20.676776695298258
 20
22.423223304703239
 30
0.0
  0
VERTEX
  5
1D13
  8
SAPA_PROFIL
  6
CONTINUOUS
 10
-20.964107602125861
 20
22.71055421153153
 30
0.0
 42
0.5535245743249283
  0
VERTEX
  5
1D14
  8
SAPA_PROFIL
  6
CONTINUOUS
 10
-22.736626924636251
 20
18.400000000000318
 30
0.0
  0
VERTEX
  5
1D15
  8
SAPA_PROFIL
  6
CONTINUOUS
 10
-22.400000000001281
 20
18.400000000000318
 30
0.0
 42
-0.4142135623730951
  0
VERTEX
  5
1D16
  8
SAPA_PROFIL
  6
CONTINUOUS
 10
-22.10000000000127
 20
18.100000000000129
 30
0.0
  0
VERTEX
  5
1D17
  8
SAPA_PROFIL
  6
CONTINUOUS
 10
-22.10000000000127
 20
17.600000000000129
 30
0.0
 42
-0.4142135623730951
  0
VERTEX
  5
1D18
  8
SAPA_PROFIL
  6
CONTINUOUS
 10
-22.400000000001281
 20
17.300000000000178
 30
0.0
  0
VERTEX
  5
1D19
  8
SAPA_PROFIL
  6
CONTINUOUS
 10
-23.500000000001251
 20
17.300000000000178
 30
0.0
 42
-0.4142135623730951
  0
VERTEX
  5
1D1A
  8
SAPA_PROFIL
  6
CONTINUOUS
 10
-25.000000000001251
 20
18.800000000000178
 30
0.0
  0
VERTEX
  5
1D1B
  8
SAPA_PROFIL
  6
CONTINUOUS
 10
-25.000000000001251
 20
21.78038475772928
 30
0.0
 42
-0.2679491924311181
  0
VERTEX
  5
1D1C
  8
SAPA_PROFIL
  6
CONTINUOUS
 10
-24.85000000000122
 20
22.040192378864958
 30
0.0
 42
0.7673269879789743
  0
VERTEX
  5
1D1D
  8
SAPA_PROFIL
  6
CONTINUOUS
 10
-25.000000000001251
 20
22.600000000000129
 30
0.0
  0
VERTEX
  5
1D1E
  8
SAPA_PROFIL
  6
CONTINUOUS
 10
-27.00000000000102
 20
22.599999999999909
 30
0.0
 42
0.4142137811865409
  0
VERTEX
  5
1D1F
  8
SAPA_PROFIL
  6
CONTINUOUS
 10
-28.000000000001251
 20
21.600000747075232
 30
0.0
  0
VERTEX
  5
1D20
  8
SAPA_PROFIL
  6
CONTINUOUS
 10
-28.000000000001251
 20
-21.599999999999682
 30
0.0
 42
0.4142140000000106
  0
VERTEX
  5
1D21
  8
SAPA_PROFIL
  6
CONTINUOUS
 10
-27.00000000000108
 20
-22.599999999999461
 30
0.0
  0
VERTEX
  5
1D22
  8
SAPA_PROFIL
  6
CONTINUOUS
 10
-25.000000000001251
 20
-22.599999999999682
 30
0.0
 42
0.7673269879789674
  0
VERTEX
  5
1D23
  8
SAPA_PROFIL
  6
CONTINUOUS
 10
-24.85000000000122
 20
-22.0401923788645
 30
0.0
 42
-0.267949192431118
  0
VERTEX
  5
1D24
  8
SAPA_PROFIL
  6
CONTINUOUS
 10
-25.000000000001251
 20
-21.780384757728829
 30
0.0
  0
VERTEX
  5
1D25
  8
SAPA_PROFIL
  6
CONTINUOUS
 10
-25.000000000001251
 20
-18.799999999999731
 30
0.0
 42
-0.4142135623730951
  0
VERTEX
  5
1D26
  8
SAPA_PROFIL
  6
CONTINUOUS
 10
-23.500000000001251
 20
-17.299999999999731
 30
0.0
  0
VERTEX
  5
1D27
  8
SAPA_PROFIL
  6
CONTINUOUS
 10
-22.400000000001281
 20
-17.299999999999731
 30
0.0
 42
-0.4142135623730951
  0
VERTEX
  5
1D28
  8
SAPA_PROFIL
  6
CONTINUOUS
 10
-22.10000000000127
 20
-17.599999999999682
 30
0.0
  0
VERTEX
  5
1D29
  8
SAPA_PROFIL
  6
CONTINUOUS
 10
-22.10000000000127
 20
-18.099999999999682
 30
0.0
 42
-0.4142135623730951
  0
VERTEX
  5
1D2A
  8
SAPA_PROFIL
  6
CONTINUOUS
 10
-22.400000000001281
 20
-18.39999999999975
 30
0.0
  0
VERTEX
  5
1D2B
  8
SAPA_PROFIL
  6
CONTINUOUS
 10
-22.736626924636251
 20
-18.39999999999975
 30
0.0
 42
0.5535245743249339
  0
VERTEX
  5
1D2C
  8
SAPA_PROFIL
  6
CONTINUOUS
 10
-20.964107602125811
 20
-22.710554211531068
 30
0.0
  0
VERTEX
  5
1D2D
  8
SAPA_PROFIL
  6
CONTINUOUS
 10
-20.676776695298258
 20
-22.423223304702791
 30
0.0
 42
-0.4142135623730951
  0
VERTEX
  5
1D2E
  8
SAPA_PROFIL
  6
CONTINUOUS
 10
-20.323223304704641
 20
-22.423223304703129
 30
0.0
  0
VERTEX
  5
1D2F
  8
SAPA_PROFIL
  6
CONTINUOUS
 10
-20.035892397876239
 20
-22.710554211530731
 30
0.0
 42
0.5535245743249339
  0
VERTEX
  5
1D30
  8
SAPA_PROFIL
  6
CONTINUOUS
 10
-18.263373075366751
 20
-18.39999999999975
 30
0.0
  0
VERTEX
  5
1D31
  8
SAPA_PROFIL
  6
CONTINUOUS
 10
-18.60000000000127
 20
-18.39999999999975
 30
0.0
 42
-0.4142135623730951
  0
VERTEX
  5
1D32
  8
SAPA_PROFIL
  6
CONTINUOUS
 10
-18.900000000001281
 20
-18.099999999999682
 30
0.0
  0
VERTEX
  5
1D33
  8
SAPA_PROFIL
  6
CONTINUOUS
 10
-18.900000000001281
 20
-17.599999999999682
 30
0.0
 42
-0.4142135623730951
  0
VERTEX
  5
1D34
  8
SAPA_PROFIL
  6
CONTINUOUS
 10
-18.60000000000127
 20
-17.299999999999731
 30
0.0
  0
VERTEX
  5
1D35
  8
SAPA_PROFIL
  6
CONTINUOUS
 10
-16.300000000001258
 20
-17.299999999999731
 30
0.0
 42
-0.4142135623730951
  0
VERTEX
  5
1D36
  8
SAPA_PROFIL
  6
CONTINUOUS
 10
-16.000000000001251
 20
-17.599999999999682
 30
0.0
  0
VERTEX
  5
1D37
  8
SAPA_PROFIL
  6
CONTINUOUS
 10
-16.000000000001251
 20
-22.199999999999822
 30
0.0
 42
0.4142135623730951
  0
VERTEX
  5
1D38
  8
SAPA_PROFIL
  6
CONTINUOUS
 10
-15.000000000001251
 20
-23.199999999999822
 30
0.0
  0
VERTEX
  5
1D39
  8
SAPA_PROFIL
  6
CONTINUOUS
 10
-0.0000000000012506
 20
-23.199999999999822
 30
0.0
 42
0.7673269879789535
  0
VERTEX
  5
1D3A
  8
SAPA_PROFIL
  6
CONTINUOUS
 10
0.2499999999988063
 20
-22.266987298107551
 30
0.0
 42
-0.267949192431118
  0
VERTEX
  5
1D3B
  8
SAPA_PROFIL
  6
CONTINUOUS
 10
-0.0000000000012506
 20
-21.833974596215739
 30
0.0
  0
VERTEX
  5
1D3C
  8
SAPA_PROFIL
  6
CONTINUOUS
 10
-0.0000000000012506
 20
-18.799999999999731
 30
0.0
 42
-0.4142135623730951
  0
VERTEX
  5
1D3D
  8
SAPA_PROFIL
  6
CONTINUOUS
 10
1.499999999998749
 20
-17.299999999999731
 30
0.0
  0
VERTEX
  5
1D3E
  8
SAPA_PROFIL
  6
CONTINUOUS
 10
2.5999999999987149
 20
-17.299999999999731
 30
0.0
 42
-0.4142135623730951
  0
VERTEX
  5
1D3F
  8
SAPA_PROFIL
  6
CONTINUOUS
 10
2.8999999999987831
 20
-17.599999999999682
 30
0.0
  0
VERTEX
  5
1D40
  8
SAPA_PROFIL
  6
CONTINUOUS
 10
2.8999999999987831
 20
-18.099999999999682
 30
0.0
 42
-0.4142135623730951
  0
VERTEX
  5
1D41
  8
SAPA_PROFIL
  6
CONTINUOUS
 10
2.5999999999987149
 20
-18.39999999999975
 30
0.0
  0
VERTEX
  5
1D42
  8
SAPA_PROFIL
  6
CONTINUOUS
 10
2.2633730753637451
 20
-18.39999999999975
 30
0.0
 42
0.5535245743249339
  0
VERTEX
  5
1D43
  8
SAPA_PROFIL
  6
CONTINUOUS
 10
4.0358923978741919
 20
-22.710554211531068
 30
0.0
  0
VERTEX
  5
1D44
  8
SAPA_PROFIL
  6
CONTINUOUS
 10
4.3232233047017408
 20
-22.423223304702791
 30
0.0
 42
-0.4142135623730951
  0
VERTEX
  5
1D45
  8
SAPA_PROFIL
  6
CONTINUOUS
 10
4.6767766952953593
 20
-22.423223304703129
 30
0.0
  0
VERTEX
  5
1D46
  8
SAPA_PROFIL
  6
CONTINUOUS
 10
4.96410760212376
 20
-22.710554211530731
 30
0.0
 42
0.5535245743249339
  0
VERTEX
  5
1D47
  8
SAPA_PROFIL
  6
CONTINUOUS
 10
6.7366269246332422
 20
-18.39999999999975
 30
0.0
  0
VERTEX
  5
1D48
  8
SAPA_PROFIL
  6
CONTINUOUS
 10
6.3999999999987827
 20
-18.39999999999975
 30
0.0
 42
-0.4142135623730951
  0
VERTEX
  5
1D49
  8
SAPA_PROFIL
  6
CONTINUOUS
 10
6.0999999999987153
 20
-18.099999999999682
 30
0.0
  0
VERTEX
  5
1D4A
  8
SAPA_PROFIL
  6
CONTINUOUS
 10
6.0999999999987153
 20
-17.599999999999682
 30
0.0
 42
-0.4142135623730951
  0
VERTEX
  5
1D4B
  8
SAPA_PROFIL
  6
CONTINUOUS
 10
6.3999999999987827
 20
-17.299999999999731
 30
0.0
  0
VERTEX
  5
1D4C
  8
SAPA_PROFIL
  6
CONTINUOUS
 10
8.6999999999987381
 20
-17.299999999999731
 30
0.0
 42
-0.4142135623730951
  0
VERTEX
  5
1D4D
  8
SAPA_PROFIL
  6
CONTINUOUS
 10
8.9999999999986926
 20
-17.599999999999682
 30
0.0
  0
VERTEX
  5
1D4E
  8
SAPA_PROFIL
  6
CONTINUOUS
 10
8.9999999999987494
 20
-22.199999999999822
 30
0.0
 42
0.4142135623730951
  0
VERTEX
  5
1D4F
  8
SAPA_PROFIL
  6
CONTINUOUS
 10
9.9999999999987494
 20
-23.199999999999822
 30
0.0
  0
VERTEX
  5
1D50
  8
SAPA_PROFIL
  6
CONTINUOUS
 10
14.69999999999874
 20
-23.199999999999822
 30
0.0
 42
0.4142135623730951
  0
VERTEX
  5
1D51
  8
SAPA_PROFIL
  6
CONTINUOUS
 10
14.999999999998691
 20
-22.89999999999975
 30
0.0
  0
VERTEX
  5
1D52
  8
SAPA_PROFIL
  6
CONTINUOUS
 10
14.999999999998749
 20
-21.39999999999975
 30
0.0
 42
-0.4142135623730951
  0
VERTEX
  5
1D53
  8
SAPA_PROFIL
  6
CONTINUOUS
 10
15.299999999998761
 20
-21.099999999999682
 30
0.0
  0
VERTEX
  5
1D54
  8
SAPA_PROFIL
  6
CONTINUOUS
 10
15.87573593128678
 20
-21.099999999999682
 30
0.0
 42
-0.1989123673797306
  0
VERTEX
  5
1D55
  8
SAPA_PROFIL
  6
CONTINUOUS
 10
16.087867965642712
 20
-21.187867965643822
 30
0.0
  0
VERTEX
  5
1D56
  8
SAPA_PROFIL
  6
CONTINUOUS
 10
18.01213203435475
 20
-23.112132034355682
 30
0.0
 42
0.1989123673796489
  0
VERTEX
  5
1D57
  8
SAPA_PROFIL
  6
CONTINUOUS
 10
18.224264068710738
 20
-23.199999999999822
 30
0.0
  0
VERTEX
  5
1D58
  8
SAPA_PROFIL
  6
CONTINUOUS
 10
21.499999999998749
 20
-23.199999999999822
 30
0.0
 42
0.4142140000000004
  0
VERTEX
  5
1D59
  8
SAPA_PROFIL
  6
CONTINUOUS
 10
22.499999999998469
 20
-22.199999999999591
 30
0.0
  0
SEQEND
  5
1D5A
  8
SAPA_PROFIL
  6
CONTINUOUS
  0
POLYLINE
  5
10C4
  8
SAPA_PROFIL
 66
     1
 10
0.0
 20
0.0
 30
0.0
 70
     1
  0
VERTEX
  5
1D5B
  8
SAPA_PROFIL
 10
-17.807675738232099
 20
180.98688463141971
 30
0.0
 42
0.5773502691895968
  0
VERTEX
  5
1D5C
  8
SAPA_PROFIL
 10
-17.250823248706759
 20
179.45694499048301
 30
0.0
  0
VERTEX
  5
1D5D
  8
SAPA_PROFIL
 10
-16.27983292861326
 20
179.28573318563321
 30
0.0
  0
VERTEX
  5
1D5E
  8
SAPA_PROFIL
 10
-16.670207265971161
 20
177.07181030333001
 30
0.0
  0
VERTEX
  5
1D5F
  8
SAPA_PROFIL
 10
-17.797838410914189
 20
176.6613861313393
 30
0.0
 42
0.4142135623729286
  0
VERTEX
  5
1D60
  8
SAPA_PROFIL
 10
-17.97714015415238
 20
176.27687230210589
 30
0.0
  0
VERTEX
  5
1D61
  8
SAPA_PROFIL
 10
-17.840332096822081
 20
175.90099525379151
 30
0.0
 42
0.4142135623732059
  0
VERTEX
  5
1D62
  8
SAPA_PROFIL
 10
-17.455818267588519
 20
175.72169351055339
 30
0.0
  0
VERTEX
  5
1D63
  8
SAPA_PROFIL
 10
-16.23203516291257
 20
176.1671141338536
 30
0.0
 42
-0.4142135623731506
  0
VERTEX
  5
1D64
  8
SAPA_PROFIL
 10
-15.8475213336789
 20
175.9878123906156
 30
0.0
  0
VERTEX
  5
1D65
  8
SAPA_PROFIL
 10
-15.649136147239989
 20
175.44275357052041
 30
0.0
 42
0.4142135623730951
  0
VERTEX
  5
1D66
  8
SAPA_PROFIL
 10
-15.264622318006531
 20
175.26345182728221
 30
0.0
  0
VERTEX
  5
1D67
  8
SAPA_PROFIL
 10
-13.002082771023369
 20
176.0869488762342
 30
0.0
  0
VERTEX
  5
1D68
  8
SAPA_PROFIL
 10
-12.61525240443488
 20
176.71597053981969
 30
0.0
 42
0.7105995015649727
  0
VERTEX
  5
1D69
  8
SAPA_PROFIL
 10
-12.973403057408291
 20
177.1550309662255
 30
0.0
  0
VERTEX
  5
1D6A
  8
SAPA_PROFIL
 10
-13.63118789195825
 20
176.91561686589759
 30
0.0
  0
VERTEX
  5
1D6B
  8
SAPA_PROFIL
 10
-14.556742344660989
 20
179.4585568251737
 30
0.0
 42
-0.4142135623731506
  0
VERTEX
  5
1D6C
  8
SAPA_PROFIL
 10
-14.377440601422871
 20
179.8430706544072
 30
0.0
  0
VERTEX
  5
1D6D
  8
SAPA_PROFIL
 10
-10.24279306996525
 20
181.34795928504019
 30
0.0
 42
-0.4142135623730951
  0
VERTEX
  5
1D6E
  8
SAPA_PROFIL
 10
-9.8582792407315836
 20
181.16865754180211
 30
0.0
  0
VERTEX
  5
1D6F
  8
SAPA_PROFIL
 10
-8.9327247880289207
 20
178.62571758252591
 30
0.0
  0
VERTEX
  5
1D70
  8
SAPA_PROFIL
 10
-9.5905096225789261
 20
178.38630348219809
 30
0.0
 42
0.7105995015650586
  0
VERTEX
  5
1D71
  8
SAPA_PROFIL
 10
-9.5826463380914717
 20
177.8197488802241
 30
0.0
  0
VERTEX
  5
1D72
  8
SAPA_PROFIL
 10
-8.8819897537591146
 20
177.5865400969262
 30
0.0
  0
VERTEX
  5
1D73
  8
SAPA_PROFIL
 10
-0.9364925486759361
 20
180.47846457602191
 30
0.0
  0
VERTEX
  5
1D74
  8
SAPA_PROFIL
 10
-0.5944724053502668
 20
179.538771955236
 30
0.0
  0
VERTEX
  5
1D75
  8
SAPA_PROFIL
 10
0.3452202154356456
 20
179.88079209856161
 30
0.0
  0
VERTEX
  5
1D76
  8
SAPA_PROFIL
 10
0.0032000721099763
 20
180.8204847193476
 30
0.0
  0
VERTEX
  5
1D77
  8
SAPA_PROFIL
 10
2.7752933034283411
 20
181.82944414215831
 30
0.0
  0
VERTEX
  5
1D78
  8
SAPA_PROFIL
 10
2.4332731601026749
 20
182.76913676294421
 30
0.0
  0
VERTEX
  5
1D79
  8
SAPA_PROFIL
 10
4.218689139595809
 20
183.4189750352628
 30
0.0
  0
VERTEX
  5
1D7A
  8
SAPA_PROFIL
 10
4.5175253783261828
 20
184.05983141731861
 30
0.0
  0
VERTEX
  5
1D7B
  8
SAPA_PROFIL
 10
5.1583817603822508
 20
183.7609951785887
 30
0.0
  0
VERTEX
  5
1D7C
  8
SAPA_PROFIL
 10
6.9437977398752428
 20
184.41083345090729
 30
0.0
  0
VERTEX
  5
1D7D
  8
SAPA_PROFIL
 10
7.2858178832008704
 20
183.4711408301215
 30
0.0
  0
VERTEX
  5
1D7E
  8
SAPA_PROFIL
 10
10.057911114519341
 20
184.48010025293229
 30
0.0
  0
VERTEX
  5
1D7F
  8
SAPA_PROFIL
 10
10.39993125784501
 20
183.54040763214641
 30
0.0
  0
VERTEX
  5
1D80
  8
SAPA_PROFIL
 10
11.33962387863092
 20
183.882427775472
 30
0.0
  0
VERTEX
  5
1D81
  8
SAPA_PROFIL
 10
10.997603735305249
 20
184.8221203962579
 30
0.0
  0
VERTEX
  5
1D82
  8
SAPA_PROFIL
 10
18.943100940388621
 20
187.71404487535349
 30
0.0
  0
VERTEX
  5
1D83
  8
SAPA_PROFIL
 10
19.329931306977059
 20
188.3430665389395
 30
0.0
 42
0.7105995015650586
  0
VERTEX
  5
1D84
  8
SAPA_PROFIL
 10
18.971780654003702
 20
188.7821269653451
 30
0.0
  0
VERTEX
  5
1D85
  8
SAPA_PROFIL
 10
18.313995819453769
 20
188.54271286501711
 30
0.0
  0
VERTEX
  5
1D86
  8
SAPA_PROFIL
 10
17.38844136675111
 20
191.08565282429339
 30
0.0
 42
-0.4142135623730951
  0
VERTEX
  5
1D87
  8
SAPA_PROFIL
 10
17.56774310998922
 20
191.47016665352689
 30
0.0
  0
VERTEX
  5
1D88
  8
SAPA_PROFIL
 10
21.702390641447021
 20
192.97505528415959
 30
0.0
 42
-0.4142135623731506
  0
VERTEX
  5
1D89
  8
SAPA_PROFIL
 10
22.08690447068048
 20
192.79575354092151
 30
0.0
  0
VERTEX
  5
1D8A
  8
SAPA_PROFIL
 10
23.012458923383001
 20
190.25281358164531
 30
0.0
  0
VERTEX
  5
1D8B
  8
SAPA_PROFIL
 10
22.35467408883299
 20
190.01339948131749
 30
0.0
 42
0.7105995015649949
  0
VERTEX
  5
1D8C
  8
SAPA_PROFIL
 10
22.362537373320631
 20
189.44684487934339
 30
0.0
  0
VERTEX
  5
1D8D
  8
SAPA_PROFIL
 10
23.063193957652619
 20
189.2136360960458
 30
0.0
  0
VERTEX
  5
1D8E
  8
SAPA_PROFIL
 10
25.325733504635782
 20
190.0371331449978
 30
0.0
 42
0.4142135623730951
  0
VERTEX
  5
1D8F
  8
SAPA_PROFIL
 10
25.505035247873892
 20
190.42164697423141
 30
0.0
  0
VERTEX
  5
1D90
  8
SAPA_PROFIL
 10
25.306650061434979
 20
190.9667057943266
 30
0.0
 42
-0.4142135623731506
  0
VERTEX
  5
1D91
  8
SAPA_PROFIL
 10
25.4859518046731
 20
191.35121962356021
 30
0.0
  0
VERTEX
  5
1D92
  8
SAPA_PROFIL
 10
26.70973490934939
 20
191.79664024685979
 30
0.0
 42
0.414213562373206
  0
VERTEX
  5
1D93
  8
SAPA_PROFIL
 10
26.889036652587389
 20
192.18115407609341
 30
0.0
  0
VERTEX
  5
1D94
  8
SAPA_PROFIL
 10
26.75222859525709
 20
192.55703112440781
 30
0.0
 42
0.4142135623729286
  0
VERTEX
  5
1D95
  8
SAPA_PROFIL
 10
26.36771476602372
 20
192.73633286764581
 30
0.0
  0
VERTEX
  5
1D96
  8
SAPA_PROFIL
 10
25.24008362108059
 20
192.3259086956549
 30
0.0
  0
VERTEX
  5
1D97
  8
SAPA_PROFIL
 10
23.517957331665411
 20
193.77094422994409
 30
0.0
  0
VERTEX
  5
1D98
  8
SAPA_PROFIL
 10
24.151726243905721
 20
194.5262406285272
 30
0.0
 42
0.5773502691896019
  0
VERTEX
  5
1D99
  8
SAPA_PROFIL
 10
23.59487375438124
 20
196.05618026946419
 30
0.0
  0
VERTEX
  5
1D9A
  8
SAPA_PROFIL
 10
22.377686125826589
 20
196.27080327555251
 30
0.0
 42
0.1316524948697527
  0
VERTEX
  5
1D9B
  8
SAPA_PROFIL
 10
21.86201781535711
 20
196.2256881414707
 30
0.0
  0
VERTEX
  5
1D9C
  8
SAPA_PROFIL
 10
-16.589188635286959
 20
182.2305935218117
 30
0.0
 42
0.1316524948697533
  0
VERTEX
  5
1D9D
  8
SAPA_PROFIL
 10
-17.013212928211878
 20
181.93368851889781
 30
0.0
  0
SEQEND
  5
1D9E
  8
SAPA_PROFIL
  0
POLYLINE
  5
10C5
  8
SAPA_PROFIL
 62
     4
 66
     1
 10
0.0
 20
0.0
 30
0.0
 70
     1
  0
VERTEX
  5
1D9F
  8
SAPA_PROFIL
 62
     4
 10
12.038685469062891
 20
160.03323883972891
 30
0.0
  0
VERTEX
  5
1DA0
  8
SAPA_PROFIL
 62
     4
 10
12.791129784379381
 20
157.96591507399981
 30
0.0
 42
1.0
  0
VERTEX
  5
1DA1
  8
SAPA_PROFIL
 62
     4
 10
14.95242281218693
 20
158.75256140364891
 30
0.0
  0
VERTEX
  5
1DA2
  8
SAPA_PROFIL
 62
     4
 10
14.19997849687055
 20
160.81988516937801
 30
0.0
 42
1.0
  0
SEQEND
  5
1DA3
  8
SAPA_PROFIL
 62
     4
  0
POLYLINE
  5
10C6
  8
SAPA_PROFIL
 62
     4
 66
     1
 10
0.0
 20
0.0
 30
0.0
 70
     1
  0
VERTEX
  5
1DA4
  8
SAPA_PROFIL
 62
     4
 10
4.1789563284391562
 20
173.29482463615719
 30
0.0
  0
VERTEX
  5
1DA5
  8
SAPA_PROFIL
 62
     4
 10
3.1355102795632219
 20
176.161669093863
 30
0.0
  0
VERTEX
  5
1DA6
  8
SAPA_PROFIL
 62
     4
 10
1.9973193981149
 20
179.28882283967141
 30
0.0
 42
-0.6681786379192966
  0
VERTEX
  5
1DA7
  8
SAPA_PROFIL
 62
     4
 10
2.678474839378171
 20
179.91298680485249
 30
0.0
  0
VERTEX
  5
1DA8
  8
SAPA_PROFIL
 62
     4
 10
5.4296028446557587
 20
178.6301147396419
 30
0.0
 42
0.1989123679837333
  0
VERTEX
  5
1DA9
  8
SAPA_PROFIL
 62
     4
 10
6.1942412518287027
 20
178.59672990491029
 30
0.0
  0
VERTEX
  5
1DAA
  8
SAPA_PROFIL
 62
     4
 10
6.7447004446231986
 20
178.79708066626571
 30
0.0
 42
0.1989123667755704
  0
VERTEX
  5
1DAB
  8
SAPA_PROFIL
 62
     4
 10
7.3089880873518576
 20
179.31415502320431
 30
0.0
  0
VERTEX
  5
1DAC
  8
SAPA_PROFIL
 62
     4
 10
8.5918601604909561
 20
182.06528304548419
 30
0.0
 42
-0.6681786379192936
  0
VERTEX
  5
1DAD
  8
SAPA_PROFIL
 62
     4
 10
9.5148603644021534
 20
182.02498398627679
 30
0.0
  0
VERTEX
  5
1DAE
  8
SAPA_PROFIL
 62
     4
 10
10.65305124585047
 20
178.89783024046829
 30
0.0
  0
VERTEX
  5
1DAF
  8
SAPA_PROFIL
 62
     4
 10
11.69649729472642
 20
176.03098578276251
 30
0.0
 42
-0.4142135623730951
  0
VERTEX
  5
1DB0
  8
SAPA_PROFIL
 62
     4
 10
11.3976610559963
 20
175.3901294007068
 30
0.0
  0
VERTEX
  5
1DB1
  8
SAPA_PROFIL
 62
     4
 10
4.8198127104949453
 20
172.99598839742711
 30
0.0
 42
-0.4142135623730951
  0
SEQEND
  5
1DB2
  8
SAPA_PROFIL
 62
     4
  0
POLYLINE
  5
10C7
  8
SAPA_PROFIL
 62
     4
 66
     1
 10
0.0
 20
0.0
 30
0.0
 70
     1
  0
VERTEX
  5
1DB3
  8
SAPA_PROFIL
 62
     4
 10
13.9724635566015
 20
165.6429360343831
 30
0.0
  0
VERTEX
  5
1DB4
  8
SAPA_PROFIL
 62
     4
 10
13.09857942532595
 20
163.83581175454279
 30
0.0
 42
-0.9251773977986363
  0
VERTEX
  5
1DB5
  8
SAPA_PROFIL
 62
     4
 10
10.9438058668078
 20
163.05153831765841
 30
0.0
  0
VERTEX
  5
1DB6
  8
SAPA_PROFIL
 62
     4
 10
9.1127746878691731
 20
163.87415393836969
 30
0.0
  0
VERTEX
  5
1DB7
  8
SAPA_PROFIL
 62
     4
 10
8.2536949494846592
 20
163.56147448473661
 30
0.0
 42
-0.4142135623730769
  0
VERTEX
  5
1DB8
  8
SAPA_PROFIL
 62
     4
 10
7.6128385674288701
 20
163.86031072346671
 30
0.0
  0
VERTEX
  5
1DB9
  8
SAPA_PROFIL
 62
     4
 10
4.862996615090494
 20
171.41543939458541
 30
0.0
 42
-0.4142135623730951
  0
VERTEX
  5
1DBA
  8
SAPA_PROFIL
 62
     4
 10
5.161832853820612
 20
172.05629577664121
 30
0.0
  0
VERTEX
  5
1DBB
  8
SAPA_PROFIL
 62
     4
 10
11.73968119932197
 20
174.45043677992089
 30
0.0
 42
-0.4142135623730951
  0
VERTEX
  5
1DBC
  8
SAPA_PROFIL
 62
     4
 10
12.380537581377761
 20
174.1516005411907
 30
0.0
  0
VERTEX
  5
1DBD
  8
SAPA_PROFIL
 62
     4
 10
15.130379533716139
 20
166.59647187007201
 30
0.0
 42
-0.4142135623730951
  0
VERTEX
  5
1DBE
  8
SAPA_PROFIL
 62
     4
 10
14.83154329498602
 20
165.95561548801629
 30
0.0
  0
SEQEND
  5
1DBF
  8
SAPA_PROFIL
 62
     4
  0
POLYLINE
  5
10C8
  8
SAPA_PROFIL
 62
     4
 66
     1
 10
0.0
 20
0.0
 30
0.0
 70
     1
  0
VERTEX
  5
1DC0
  8
SAPA_PROFIL
 62
     4
 10
6.621842925144227
 20
163.65924447325889
 30
0.0
 42
-1.0
  0
VERTEX
  5
1DC1
  8
SAPA_PROFIL
 62
     4
 10
5.4002425181224822
 20
163.21461828693549
 30
0.0
  0
VERTEX
  5
1DC2
  8
SAPA_PROFIL
 62
     4
 10
5.1095253962956546
 20
164.0133570146036
 30
0.0
  0
VERTEX
  5
1DC3
  8
SAPA_PROFIL
 62
     4
 10
5.1565100273350151
 20
164.0304580217699
 30
0.0
 42
1.0
  0
VERTEX
  5
1DC4
  8
SAPA_PROFIL
 62
     4
 10
4.9854999556721804
 20
164.50030433216281
 30
0.0
  0
VERTEX
  5
1DC5
  8
SAPA_PROFIL
 62
     4
 10
4.5626382763184781
 20
164.34639526766631
 30
0.0
 42
0.4142135623730951
  0
VERTEX
  5
1DC6
  8
SAPA_PROFIL
 62
     4
 10
4.383336533080473
 20
163.9618814384327
 30
0.0
  0
VERTEX
  5
1DC7
  8
SAPA_PROFIL
 62
     4
 10
4.9647707767340883
 20
162.36440398309679
 30
0.0
 42
0.4225789089359373
  0
VERTEX
  5
1DC8
  8
SAPA_PROFIL
 62
     4
 10
6.2328027351126813
 20
161.8043192104679
 30
0.0
  0
VERTEX
  5
1DC9
  8
SAPA_PROFIL
 62
     4
 10
9.0518805974704044
 20
162.8303796404449
 30
0.0
  0
VERTEX
  5
1DCA
  8
SAPA_PROFIL
 62
     4
 10
10.141336446965131
 20
162.3223580346037
 30
0.0
  0
VERTEX
  5
1DCB
  8
SAPA_PROFIL
 62
     4
 10
12.24476032841798
 20
156.54324841677041
 30
0.0
 42
0.4142135623730951
  0
VERTEX
  5
1DCC
  8
SAPA_PROFIL
 62
     4
 10
13.52647309252956
 20
155.94557593931009
 30
0.0
  0
VERTEX
  5
1DCD
  8
SAPA_PROFIL
 62
     4
 10
15.687766120337111
 20
156.73222226895919
 30
0.0
 42
0.4142135623730951
  0
VERTEX
  5
1DCE
  8
SAPA_PROFIL
 62
     4
 10
16.285438597797349
 20
158.01393503307079
 30
0.0
  0
VERTEX
  5
1DCF
  8
SAPA_PROFIL
 62
     4
 10
14.182014716344529
 20
163.79304465090399
 30
0.0
  0
VERTEX
  5
1DD0
  8
SAPA_PROFIL
 62
     4
 10
14.690036322185749
 20
164.88250050039881
 30
0.0
  0
VERTEX
  5
1DD1
  8
SAPA_PROFIL
 62
     4
 10
17.509114184543471
 20
165.90856093037581
 30
0.0
 42
0.4225789089359373
  0
VERTEX
  5
1DD2
  8
SAPA_PROFIL
 62
     4
 10
18.120467467736709
 20
167.15268598965611
 30
0.0
  0
VERTEX
  5
1DD3
  8
SAPA_PROFIL
 62
     4
 10
17.539033224083092
 20
168.7501634449921
 30
0.0
 42
0.4142135623730951
  0
VERTEX
  5
1DD4
  8
SAPA_PROFIL
 62
     4
 10
17.154519394849519
 20
168.92946518823021
 30
0.0
  0
VERTEX
  5
1DD5
  8
SAPA_PROFIL
 62
     4
 10
16.731657715495931
 20
168.77555612373359
 30
0.0
 42
1.0
  0
VERTEX
  5
1DD6
  8
SAPA_PROFIL
 62
     4
 10
16.902667787158759
 20
168.30570981334071
 30
0.0
  0
VERTEX
  5
1DD7
  8
SAPA_PROFIL
 62
     4
 10
16.94965241819812
 20
168.32281082050699
 30
0.0
  0
VERTEX
  5
1DD8
  8
SAPA_PROFIL
 62
     4
 10
17.24036954002494
 20
167.52407209283899
 30
0.0
 42
-1.0
  0
VERTEX
  5
1DD9
  8
SAPA_PROFIL
 62
     4
 10
16.0187691330032
 20
167.07944590651559
 30
0.0
  0
VERTEX
  5
1DDA
  8
SAPA_PROFIL
 62
     4
 10
11.592743866636379
 20
179.23985038379399
 30
0.0
  0
VERTEX
  5
1DDB
  8
SAPA_PROFIL
 62
     4
 10
9.729018697244129
 20
184.36039320276851
 30
0.0
  0
VERTEX
  5
1DDC
  8
SAPA_PROFIL
 62
     4
 10
8.3194797660652817
 20
183.84736298777989
 30
0.0
  0
VERTEX
  5
1DDD
  8
SAPA_PROFIL
 62
     4
 10
6.4389352258247596
 20
179.8145222069077
 30
0.0
 42
-0.4142135623730951
  0
VERTEX
  5
1DDE
  8
SAPA_PROFIL
 62
     4
 10
5.7744722014361862
 20
179.5726774442598
 30
0.0
  0
VERTEX
  5
1DDF
  8
SAPA_PROFIL
 62
     4
 10
1.7416314205639229
 20
181.45322198450029
 30
0.0
  0
VERTEX
  5
1DE0
  8
SAPA_PROFIL
 62
     4
 10
0.332092489385035
 20
180.94019176951181
 30
0.0
  0
VERTEX
  5
1DE1
  8
SAPA_PROFIL
 62
     4
 10
2.1958176587773268
 20
175.8196489505373
 30
0.0
  0
VERTEX
  5
1DE2
  8
SAPA_PROFIL
 62
     4
 10
6.5192368821465321
 20
163.94115225949469
 30
0.0
  0
SEQEND
  5
1DE3
  8
SAPA_PROFIL
 62
     4
  0
POLYLINE
  5
10C9
  8
SAPA_PROFIL
  6
CONTINUOUS
 62
     7
 66
     1
 10
0.0
 20
0.0
 30
0.0
 70
   129
  0
VERTEX
  5
1DE4
  8
SAPA_PROFIL
  6
CONTINUOUS
 62
     7
 10
-0.4847309302415397
 20
132.22280371046219
 30
0.0
 42
-0.4040262258351549
  0
VERTEX
  5
1DE5
  8
SAPA_PROFIL
  6
CONTINUOUS
 62
     7
 10
-1.1193329291878049
 20
132.50534672414719
 30
0.0
  0
VERTEX
  5
1DE6
  8
SAPA_PROFIL
  6
CONTINUOUS
 62
     7
 10
-1.869002794645894
 20
134.36084475254509
 30
0.0
 42
-0.4244748162096148
  0
VERTEX
  5
1DE7
  8
SAPA_PROFIL
  6
CONTINUOUS
 62
     7
 10
-1.5764209390258079
 20
135.0179943596456
 30
0.0
  0
VERTEX
  5
1DE8
  8
SAPA_PROFIL
  6
CONTINUOUS
 62
     7
 10
4.061483441686903
 20
137.07002373786409
 30
0.0
 42
0.4142135623731088
  0
VERTEX
  5
1DE9
  8
SAPA_PROFIL
  6
CONTINUOUS
 62
     7
 10
4.2407851849249019
 20
137.45453756709759
 30
0.0
  0
VERTEX
  5
1DEA
  8
SAPA_PROFIL
  6
CONTINUOUS
 62
     7
 10
2.9069066259557981
 20
141.11933878816291
 30
0.0
 42
-0.21342176528335
  0
VERTEX
  5
1DEB
  8
SAPA_PROFIL
  6
CONTINUOUS
 62
     7
 10
2.9243978590183701
 20
141.36366246029851
 30
0.0
 42
0.213421765283341
  0
VERTEX
  5
1DEC
  8
SAPA_PROFIL
  6
CONTINUOUS
 62
     7
 10
2.941889092081964
 20
141.60798613243421
 30
0.0
  0
VERTEX
  5
1DED
  8
SAPA_PROFIL
  6
CONTINUOUS
 62
     7
 10
2.7528250067863951
 20
142.12743543761371
 30
0.0
 42
0.4142135623730951
  0
VERTEX
  5
1DEE
  8
SAPA_PROFIL
  6
CONTINUOUS
 62
     7
 10
2.3683111775527541
 20
142.30673718085171
 30
0.0
  0
VERTEX
  5
1DEF
  8
SAPA_PROFIL
  6
CONTINUOUS
 62
     7
 10
0.7708337222168212
 20
141.72530293719811
 30
0.0
  0
VERTEX
  5
1DF0
  8
SAPA_PROFIL
  6
CONTINUOUS
 62
     7
 10
0.3788261642556563
 20
141.08786268548789
 30
0.0
 42
0.7105995015649539
  0
VERTEX
  5
1DF1
  8
SAPA_PROFIL
  6
CONTINUOUS
 62
     7
 10
0.7369768172290492
 20
140.6488022590822
 30
0.0
  0
VERTEX
  5
1DF2
  8
SAPA_PROFIL
  6
CONTINUOUS
 62
     7
 10
1.1128538655423761
 20
140.7856103164122
 30
0.0
 42
-0.4142135623731206
  0
VERTEX
  5
1DF3
  8
SAPA_PROFIL
  6
CONTINUOUS
 62
     7
 10
1.4973676947759029
 20
140.60630857317409
 30
0.0
  0
VERTEX
  5
1DF4
  8
SAPA_PROFIL
  6
CONTINUOUS
 62
     7
 10
2.3182160387574982
 20
138.3510462832879
 30
0.0
 42
-0.4142135623730951
  0
VERTEX
  5
1DF5
  8
SAPA_PROFIL
  6
CONTINUOUS
 62
     7
 10
2.138914295519498
 20
137.96653245405449
 30
0.0
  0
VERTEX
  5
1DF6
  8
SAPA_PROFIL
  6
CONTINUOUS
 62
     7
 10
-2.4655795463304448
 20
136.290633751759
 30
0.0
 42
-0.4142135623731258
  0
VERTEX
  5
1DF7
  8
SAPA_PROFIL
  6
CONTINUOUS
 62
     7
 10
-2.8500933755639721
 20
136.46993549499709
 30
0.0
  0
VERTEX
  5
1DF8
  8
SAPA_PROFIL
  6
CONTINUOUS
 62
     7
 10
-3.6709417195455671
 20
138.72519778488331
 30
0.0
 42
-0.4142135623731257
  0
VERTEX
  5
1DF9
  8
SAPA_PROFIL
  6
CONTINUOUS
 62
     7
 10
-3.491639976307567
 20
139.10971161411669
 30
0.0
  0
VERTEX
  5
1DFA
  8
SAPA_PROFIL
  6
CONTINUOUS
 62
     7
 10
-2.6459166176011299
 20
139.4175297431095
 30
0.0
 42
0.710599501565072
  0
VERTEX
  5
1DFB
  8
SAPA_PROFIL
  6
CONTINUOUS
 62
     7
 10
-2.6537799020886719
 20
139.9840843450838
 30
0.0
  0
VERTEX
  5
1DFC
  8
SAPA_PROFIL
  6
CONTINUOUS
 62
     7
 10
-3.3638138092412642
 20
140.22041430656509
 30
0.0
  0
VERTEX
  5
1DFD
  8
SAPA_PROFIL
  6
CONTINUOUS
 62
     7
 10
-5.5251068370488383
 20
139.4337679769161
 30
0.0
 42
0.4244748162096024
  0
VERTEX
  5
1DFE
  8
SAPA_PROFIL
  6
CONTINUOUS
 62
     7
 10
-5.7006559504203551
 20
139.03947821265561
 30
0.0
  0
VERTEX
  5
1DFF
  8
SAPA_PROFIL
  6
CONTINUOUS
 62
     7
 10
-2.6047708661932911
 20
131.37689374099739
 30
0.0
 42
0.4040262258351507
  0
VERTEX
  5
1E00
  8
SAPA_PROFIL
  6
CONTINUOUS
 62
     7
 10
-0.0663628704082839
 20
130.24672168625739
 30
0.0
  0
VERTEX
  5
1E01
  8
SAPA_PROFIL
  6
CONTINUOUS
 62
     7
 10
-0.0545100905568461
 20
130.2510357453167
 30
0.0
 42
-0.8769764629927435
  0
VERTEX
  5
1E02
  8
SAPA_PROFIL
  6
CONTINUOUS
 62
     7
 10
0.8610864891193159
 20
128.4921910802417
 30
0.0
  0
VERTEX
  5
1E03
  8
SAPA_PROFIL
  6
CONTINUOUS
 62
     7
 10
-1.1203491774222689
 20
127.10477489005061
 30
0.0
 42
0.3394542588633873
  0
VERTEX
  5
1E04
  8
SAPA_PROFIL
  6
CONTINUOUS
 62
     7
 10
-1.230184032752788
 20
126.7564232337662
 30
0.0
  0
VERTEX
  5
1E05
  8
SAPA_PROFIL
  6
CONTINUOUS
 62
     7
 10
13.859143617942889
 20
85.298836238730317
 30
0.0
 42
0.4142135623730951
  0
VERTEX
  5
1E06
  8
SAPA_PROFIL
  6
CONTINUOUS
 62
     7
 10
14.499999999998691
 20
85.000000000000227
 30
0.0
  0
VERTEX
  5
1E07
  8
SAPA_PROFIL
  6
CONTINUOUS
 62
     7
 10
60.544938418507229
 20
101.7589870229576
 30
0.0
 42
0.4142135623730951
  0
VERTEX
  5
1E08
  8
SAPA_PROFIL
  6
CONTINUOUS
 62
     7
 10
60.843774657237361
 20
102.3998434050134
 30
0.0
  0
VERTEX
  5
1E09
  8
SAPA_PROFIL
  6
CONTINUOUS
 62
     7
 10
45.75444700654355
 20
143.85743040004999
 30
0.0
 42
0.3394542588633794
  0
VERTEX
  5
1E0A
  8
SAPA_PROFIL
  6
CONTINUOUS
 62
     7
 10
45.446392497483536
 20
144.05368276648011
 30
0.0
  0
VERTEX
  5
1E0B
  8
SAPA_PROFIL
  6
CONTINUOUS
 62
     7
 10
43.036710779197669
 20
143.8428629334247
 30
0.0
 42
-0.8769764629927569
  0
VERTEX
  5
1E0C
  8
SAPA_PROFIL
  6
CONTINUOUS
 62
     7
 10
42.607534893124352
 20
145.77875025230239
 30
0.0
  0
VERTEX
  5
1E0D
  8
SAPA_PROFIL
  6
CONTINUOUS
 62
     7
 10
42.619387672975847
 20
145.78306431136161
 30
0.0
 42
0.4040262258351565
  0
VERTEX
  5
1E0E
  8
SAPA_PROFIL
  6
CONTINUOUS
 62
     7
 10
43.837460418914581
 20
148.28048354168331
 30
0.0
  0
VERTEX
  5
1E0F
  8
SAPA_PROFIL
  6
CONTINUOUS
 62
     7
 10
41.283631627663617
 20
156.14036036928141
 30
0.0
 42
0.4244748162095171
  0
VERTEX
  5
1E10
  8
SAPA_PROFIL
  6
CONTINUOUS
 62
     7
 10
40.895708629777907
 20
156.32956305720521
 30
0.0
  0
VERTEX
  5
1E11
  8
SAPA_PROFIL
  6
CONTINUOUS
 62
     7
 10
38.734415601970277
 20
155.5429167275561
 30
0.0
  0
VERTEX
  5
1E12
  8
SAPA_PROFIL
  6
CONTINUOUS
 62
     7
 10
38.342408044008039
 20
154.90547647584589
 30
0.0
 42
0.710599501565103
  0
VERTEX
  5
1E13
  8
SAPA_PROFIL
  6
CONTINUOUS
 62
     7
 10
38.700558696981602
 20
154.46641604944
 30
0.0
  0
VERTEX
  5
1E14
  8
SAPA_PROFIL
  6
CONTINUOUS
 62
     7
 10
39.546282055687932
 20
154.77423417843269
 30
0.0
 42
-0.4142135623731159
  0
VERTEX
  5
1E15
  8
SAPA_PROFIL
  6
CONTINUOUS
 62
     7
 10
39.930795884922482
 20
154.59493243519501
 30
0.0
  0
VERTEX
  5
1E16
  8
SAPA_PROFIL
  6
CONTINUOUS
 62
     7
 10
40.751644228903103
 20
152.3396701453085
 30
0.0
 42
-0.4142135623731019
  0
VERTEX
  5
1E17
  8
SAPA_PROFIL
  6
CONTINUOUS
 62
     7
 10
40.572342485664933
 20
151.955156316075
 30
0.0
  0
VERTEX
  5
1E18
  8
SAPA_PROFIL
  6
CONTINUOUS
 62
     7
 10
35.967848643814989
 20
150.27925761377961
 30
0.0
 42
-0.4142135623730951
  0
VERTEX
  5
1E19
  8
SAPA_PROFIL
  6
CONTINUOUS
 62
     7
 10
35.583334814581519
 20
150.45855935701761
 30
0.0
  0
VERTEX
  5
1E1A
  8
SAPA_PROFIL
  6
CONTINUOUS
 62
     7
 10
34.762486470599931
 20
152.7138216469038
 30
0.0
 42
-0.4142135623731367
  0
VERTEX
  5
1E1B
  8
SAPA_PROFIL
  6
CONTINUOUS
 62
     7
 10
34.941788213837981
 20
153.09833547613729
 30
0.0
  0
VERTEX
  5
1E1C
  8
SAPA_PROFIL
  6
CONTINUOUS
 62
     7
 10
35.317665262151358
 20
153.23514353346721
 30
0.0
 42
0.7105995015649319
  0
VERTEX
  5
1E1D
  8
SAPA_PROFIL
  6
CONTINUOUS
 62
     7
 10
35.309801977663767
 20
153.8016981354412
 30
0.0
  0
VERTEX
  5
1E1E
  8
SAPA_PROFIL
  6
CONTINUOUS
 62
     7
 10
34.599768070512312
 20
154.0380280969232
 30
0.0
  0
VERTEX
  5
1E1F
  8
SAPA_PROFIL
  6
CONTINUOUS
 62
     7
 10
33.002290615176207
 20
153.45659385326951
 30
0.0
 42
0.4142135623731159
  0
VERTEX
  5
1E20
  8
SAPA_PROFIL
  6
CONTINUOUS
 62
     7
 10
32.822988871938207
 20
153.0720800240361
 30
0.0
  0
VERTEX
  5
1E21
  8
SAPA_PROFIL
  6
CONTINUOUS
 62
     7
 10
33.012052957233777
 20
152.5526307188567
 30
0.0
 42
0.2134217652833476
  0
VERTEX
  5
1E22
  8
SAPA_PROFIL
  6
CONTINUOUS
 62
     7
 10
33.182500248327422
 20
152.376711075386
 30
0.0
 42
-0.2134217652833586
  0
VERTEX
  5
1E23
  8
SAPA_PROFIL
  6
CONTINUOUS
 62
     7
 10
33.352947539420143
 20
152.20079143191501
 30
0.0
  0
VERTEX
  5
1E24
  8
SAPA_PROFIL
  6
CONTINUOUS
 62
     7
 10
34.686826098391244
 20
148.53599021085029
 30
0.0
 42
0.4142135623731019
  0
VERTEX
  5
1E25
  8
SAPA_PROFIL
  6
CONTINUOUS
 62
     7
 10
35.071339927624649
 20
148.3566884676122
 30
0.0
  0
VERTEX
  5
1E26
  8
SAPA_PROFIL
  6
CONTINUOUS
 62
     7
 10
40.709244308337361
 20
150.40871784583061
 30
0.0
 42
-0.4244748162095981
  0
VERTEX
  5
1E27
  8
SAPA_PROFIL
  6
CONTINUOUS
 62
     7
 10
41.35578263814773
 20
150.09338003262519
 30
0.0
  0
VERTEX
  5
1E28
  8
SAPA_PROFIL
  6
CONTINUOUS
 62
     7
 10
41.974193345991807
 20
148.1901075778803
 30
0.0
 42
-0.4040262258351559
  0
VERTEX
  5
1E29
  8
SAPA_PROFIL
  6
CONTINUOUS
 62
     7
 10
41.669675159506419
 20
147.56575277030049
 30
0.0
  0
VERTEX
  5
1E2A
  8
SAPA_PROFIL
  6
CONTINUOUS
 62
     7
 10
22.47185735620468
 20
140.57831852703279
 30
0.0
 42
-0.4142135623730951
  0
VERTEX
  5
1E2B
  8
SAPA_PROFIL
  6
CONTINUOUS
 62
     7
 10
21.190144592093141
 20
141.17599100449311
 30
0.0
  0
VERTEX
  5
1E2C
  8
SAPA_PROFIL
  6
CONTINUOUS
 62
     7
 10
19.993074090453259
 20
144.4649151772438
 30
0.0
 42
-0.4142135623730951
  0
VERTEX
  5
1E2D
  8
SAPA_PROFIL
  6
CONTINUOUS
 62
     7
 10
20.59074656791347
 20
145.74662794135531
 30
0.0
  0
VERTEX
  5
1E2E
  8
SAPA_PROFIL
  6
CONTINUOUS
 62
     7
 10
22.470131809484322
 20
146.43066822800631
 30
0.0
 42
0.4142135623730909
  0
VERTEX
  5
1E2F
  8
SAPA_PROFIL
  6
CONTINUOUS
 62
     7
 10
23.067804286944579
 20
147.71238099211789
 30
0.0
  0
VERTEX
  5
1E30
  8
SAPA_PROFIL
  6
CONTINUOUS
 62
     7
 10
16.672027606754568
 20
165.28463300081441
 30
0.0
 42
0.4142135623730951
  0
VERTEX
  5
1E31
  8
SAPA_PROFIL
  6
CONTINUOUS
 62
     7
 10
16.287513777521099
 20
165.46393474405249
 30
0.0
  0
VERTEX
  5
1E32
  8
SAPA_PROFIL
  6
CONTINUOUS
 62
     7
 10
14.761204817945719
 20
164.9084037144732
 30
0.0
  0
VERTEX
  5
1E33
  8
SAPA_PROFIL
  6
CONTINUOUS
 62
     7
 10
14.20066694738864
 20
163.70632637185599
 30
0.0
 42
0.1989123673804336
  0
VERTEX
  5
1E34
  8
SAPA_PROFIL
  6
CONTINUOUS
 62
     7
 10
14.190651497263159
 20
163.47693485033531
 30
0.0
  0
VERTEX
  5
1E35
  8
SAPA_PROFIL
  6
CONTINUOUS
 62
     7
 10
14.601075669254779
 20
162.34930370539291
 30
0.0
  0
VERTEX
  5
1E36
  8
SAPA_PROFIL
  6
CONTINUOUS
 62
     7
 10
15.211875872765569
 20
162.5716167985546
 30
0.0
  0
VERTEX
  5
1E37
  8
SAPA_PROFIL
  6
CONTINUOUS
 62
     7
 10
15.09688392384032
 20
161.06520488553591
 30
0.0
 42
0.5450207774087864
  0
VERTEX
  5
1E38
  8
SAPA_PROFIL
  6
CONTINUOUS
 62
     7
 10
15.498619713476501
 20
160.76046303097601
 30
0.0
  0
VERTEX
  5
1E39
  8
SAPA_PROFIL
  6
CONTINUOUS
 62
     7
 10
15.82751213075181
 20
160.88017008113999
 30
0.0
  0
VERTEX
  5
1E3A
  8
SAPA_PROFIL
  6
CONTINUOUS
 62
     7
 10
15.712520181826561
 20
159.37375816812121
 30
0.0
 42
0.54502077740915
  0
VERTEX
  5
1E3B
  8
SAPA_PROFIL
  6
CONTINUOUS
 62
     7
 10
16.11425597146302
 20
159.06901631356141
 30
0.0
  0
VERTEX
  5
1E3C
  8
SAPA_PROFIL
  6
CONTINUOUS
 62
     7
 10
16.443148388737988
 20
159.18872336372539
 30
0.0
  0
VERTEX
  5
1E3D
  8
SAPA_PROFIL
  6
CONTINUOUS
 62
     7
 10
16.328156439812741
 20
157.68231145070661
 30
0.0
 42
0.5450207774088274
  0
VERTEX
  5
1E3E
  8
SAPA_PROFIL
  6
CONTINUOUS
 62
     7
 10
16.729892229448922
 20
157.3775695961466
 30
0.0
  0
VERTEX
  5
1E3F
  8
SAPA_PROFIL
  6
CONTINUOUS
 62
     7
 10
17.058784646724181
 20
157.4972766463107
 30
0.0
  0
VERTEX
  5
1E40
  8
SAPA_PROFIL
  6
CONTINUOUS
 62
     7
 10
16.943792697798919
 20
155.99086473329189
 30
0.0
 42
0.5450207774088203
  0
VERTEX
  5
1E41
  8
SAPA_PROFIL
  6
CONTINUOUS
 62
     7
 10
17.3455284874351
 20
155.68612287873199
 30
0.0
  0
VERTEX
  5
1E42
  8
SAPA_PROFIL
  6
CONTINUOUS
 62
     7
 10
17.674420904710409
 20
155.80582992889609
 30
0.0
  0
VERTEX
  5
1E43
  8
SAPA_PROFIL
  6
CONTINUOUS
 62
     7
 10
17.559428955785162
 20
154.29941801587731
 30
0.0
 42
0.5450207774087519
  0
VERTEX
  5
1E44
  8
SAPA_PROFIL
  6
CONTINUOUS
 62
     7
 10
17.961164745421279
 20
153.99467616131739
 30
0.0
  0
VERTEX
  5
1E45
  8
SAPA_PROFIL
  6
CONTINUOUS
 62
     7
 10
18.290057162696598
 20
154.11438321148151
 30
0.0
  0
VERTEX
  5
1E46
  8
SAPA_PROFIL
  6
CONTINUOUS
 62
     7
 10
18.175065213771351
 20
152.6079712984627
 30
0.0
 42
0.5450207774090911
  0
VERTEX
  5
1E47
  8
SAPA_PROFIL
  6
CONTINUOUS
 62
     7
 10
18.576801003407748
 20
152.30322944390281
 30
0.0
  0
VERTEX
  5
1E48
  8
SAPA_PROFIL
  6
CONTINUOUS
 62
     7
 10
18.90569342068278
 20
152.42293649406679
 30
0.0
  0
VERTEX
  5
1E49
  8
SAPA_PROFIL
  6
CONTINUOUS
 62
     7
 10
18.790701471757579
 20
150.91652458104801
 30
0.0
 42
0.5450207774088274
  0
VERTEX
  5
1E4A
  8
SAPA_PROFIL
  6
CONTINUOUS
 62
     7
 10
19.1924372613937
 20
150.6117827264882
 30
0.0
  0
VERTEX
  5
1E4B
  8
SAPA_PROFIL
  6
CONTINUOUS
 62
     7
 10
19.521329678669019
 20
150.73148977665221
 30
0.0
  0
VERTEX
  5
1E4C
  8
SAPA_PROFIL
  6
CONTINUOUS
 62
     7
 10
19.406337729743768
 20
149.2250778636334
 30
0.0
 42
0.5450207774088348
  0
VERTEX
  5
1E4D
  8
SAPA_PROFIL
  6
CONTINUOUS
 62
     7
 10
19.808073519379889
 20
148.92033600907351
 30
0.0
  0
VERTEX
  5
1E4E
  8
SAPA_PROFIL
  6
CONTINUOUS
 62
     7
 10
20.136965936655258
 20
149.04004305923749
 30
0.0
  0
VERTEX
  5
1E4F
  8
SAPA_PROFIL
  6
CONTINUOUS
 62
     7
 10
20.222470972486629
 20
148.80511990404111
 30
0.0
 42
-0.4142135623730951
  0
VERTEX
  5
1E50
  8
SAPA_PROFIL
  6
CONTINUOUS
 62
     7
 10
19.624798495026418
 20
147.5234071399295
 30
0.0
  0
VERTEX
  5
1E51
  8
SAPA_PROFIL
  6
CONTINUOUS
 62
     7
 10
16.42984358435336
 20
146.3605386526219
 30
0.0
 42
-0.4142135623730951
  0
VERTEX
  5
1E52
  8
SAPA_PROFIL
  6
CONTINUOUS
 62
     7
 10
15.148130820241819
 20
146.95821113008211
 30
0.0
  0
VERTEX
  5
1E53
  8
SAPA_PROFIL
  6
CONTINUOUS
 62
     7
 10
14.75480765541732
 20
148.03885764398589
 30
0.0
  0
VERTEX
  5
1E54
  8
SAPA_PROFIL
  6
CONTINUOUS
 62
     7
 10
15.083700072692411
 20
148.1585646941499
 30
0.0
 42
0.5450207774091157
  0
VERTEX
  5
1E55
  8
SAPA_PROFIL
  6
CONTINUOUS
 62
     7
 10
15.195563253680399
 20
148.65024128636719
 30
0.0
  0
VERTEX
  5
1E56
  8
SAPA_PROFIL
  6
CONTINUOUS
 62
     7
 10
14.139171397431079
 20
149.73030436140061
 30
0.0
  0
VERTEX
  5
1E57
  8
SAPA_PROFIL
  6
CONTINUOUS
 62
     7
 10
14.46806381470617
 20
149.85001141156451
 30
0.0
 42
0.5450207774091194
  0
VERTEX
  5
1E58
  8
SAPA_PROFIL
  6
CONTINUOUS
 62
     7
 10
14.57992699569416
 20
150.34168800378191
 30
0.0
  0
VERTEX
  5
1E59
  8
SAPA_PROFIL
  6
CONTINUOUS
 62
     7
 10
13.523535139444901
 20
151.42175107881519
 30
0.0
  0
VERTEX
  5
1E5A
  8
SAPA_PROFIL
  6
CONTINUOUS
 62
     7
 10
13.85242755671999
 20
151.54145812897909
 30
0.0
 42
0.5450207774093996
  0
VERTEX
  5
1E5B
  8
SAPA_PROFIL
  6
CONTINUOUS
 62
     7
 10
13.96429073770792
 20
152.03313472119649
 30
0.0
  0
VERTEX
  5
1E5C
  8
SAPA_PROFIL
  6
CONTINUOUS
 62
     7
 10
12.907898881458721
 20
153.11319779622991
 30
0.0
  0
VERTEX
  5
1E5D
  8
SAPA_PROFIL
  6
CONTINUOUS
 62
     7
 10
13.236791298733751
 20
153.23290484639381
 30
0.0
 42
0.5450207774091379
  0
VERTEX
  5
1E5E
  8
SAPA_PROFIL
  6
CONTINUOUS
 62
     7
 10
13.3486544797218
 20
153.7245814386111
 30
0.0
  0
VERTEX
  5
1E5F
  8
SAPA_PROFIL
  6
CONTINUOUS
 62
     7
 10
12.29226262347248
 20
154.8046445136444
 30
0.0
  0
VERTEX
  5
1E60
  8
SAPA_PROFIL
  6
CONTINUOUS
 62
     7
 10
12.62115504074756
 20
154.9243515638085
 30
0.0
 42
0.5450207774090506
  0
VERTEX
  5
1E61
  8
SAPA_PROFIL
  6
CONTINUOUS
 62
     7
 10
12.733018221735559
 20
155.4160281560257
 30
0.0
  0
VERTEX
  5
1E62
  8
SAPA_PROFIL
  6
CONTINUOUS
 62
     7
 10
11.6766263654863
 20
156.4960912310591
 30
0.0
  0
VERTEX
  5
1E63
  8
SAPA_PROFIL
  6
CONTINUOUS
 62
     7
 10
12.00551878276138
 20
156.61579828122299
 30
0.0
 42
0.5450207774091257
  0
VERTEX
  5
1E64
  8
SAPA_PROFIL
  6
CONTINUOUS
 62
     7
 10
12.117381963749381
 20
157.1074748734404
 30
0.0
  0
VERTEX
  5
1E65
  8
SAPA_PROFIL
  6
CONTINUOUS
 62
     7
 10
11.060990107500061
 20
158.1875379484737
 30
0.0
  0
VERTEX
  5
1E66
  8
SAPA_PROFIL
  6
CONTINUOUS
 62
     7
 10
11.389882524775141
 20
158.30724499863771
 30
0.0
 42
0.545020777409241
  0
VERTEX
  5
1E67
  8
SAPA_PROFIL
  6
CONTINUOUS
 62
     7
 10
11.50174570576314
 20
158.79892159085509
 30
0.0
  0
VERTEX
  5
1E68
  8
SAPA_PROFIL
  6
CONTINUOUS
 62
     7
 10
10.44535384951388
 20
159.87898466588831
 30
0.0
  0
VERTEX
  5
1E69
  8
SAPA_PROFIL
  6
CONTINUOUS
 62
     7
 10
10.77424626678896
 20
159.99869171605229
 30
0.0
 42
0.54502077740936
  0
VERTEX
  5
1E6A
  8
SAPA_PROFIL
  6
CONTINUOUS
 62
     7
 10
10.88610944777696
 20
160.49036830826981
 30
0.0
  0
VERTEX
  5
1E6B
  8
SAPA_PROFIL
  6
CONTINUOUS
 62
     7
 10
9.8297175915276966
 20
161.570431383303
 30
0.0
  0
VERTEX
  5
1E6C
  8
SAPA_PROFIL
  6
CONTINUOUS
 62
     7
 10
10.15861000880278
 20
161.69013843346701
 30
0.0
 42
0.6681786379193133
  0
VERTEX
  5
1E6D
  8
SAPA_PROFIL
  6
CONTINUOUS
 62
     7
 10
10.18278944432728
 20
162.2439385558138
 30
0.0
  0
VERTEX
  5
1E6E
  8
SAPA_PROFIL
  6
CONTINUOUS
 62
     7
 10
8.9807121017100258
 20
162.8044764263708
 30
0.0
  0
VERTEX
  5
1E6F
  8
SAPA_PROFIL
  6
CONTINUOUS
 62
     7
 10
7.4544031421335708
 20
162.24894539679121
 30
0.0
 42
0.4142135623730811
  0
VERTEX
  5
1E70
  8
SAPA_PROFIL
  6
CONTINUOUS
 62
     7
 10
7.2751013988955711
 20
161.8644315675578
 30
0.0
  0
VERTEX
  5
1E71
  8
SAPA_PROFIL
  6
CONTINUOUS
 62
     7
 10
13.670878079085471
 20
144.29217955886119
 30
0.0
 42
0.4142135623730951
  0
VERTEX
  5
1E72
  8
SAPA_PROFIL
  6
CONTINUOUS
 62
     7
 10
14.95259084319701
 20
143.69450708140101
 30
0.0
  0
VERTEX
  5
1E73
  8
SAPA_PROFIL
  6
CONTINUOUS
 62
     7
 10
16.831976084768879
 20
144.3785473680523
 30
0.0
 42
-0.4142135623731013
  0
VERTEX
  5
1E74
  8
SAPA_PROFIL
  6
CONTINUOUS
 62
     7
 10
18.113688848881392
 20
143.7808748905924
 30
0.0
  0
VERTEX
  5
1E75
  8
SAPA_PROFIL
  6
CONTINUOUS
 62
     7
 10
19.310759350521259
 20
140.49195071784169
 30
0.0
 42
-0.4142135623730951
  0
VERTEX
  5
1E76
  8
SAPA_PROFIL
  6
CONTINUOUS
 62
     7
 10
18.713086873061059
 20
139.21023795373009
 30
0.0
  0
SEQEND
  5
1E77
  8
SAPA_PROFIL
  6
CONTINUOUS
 62
     7
  0
POLYLINE
  5
10CA
  8
SAPA_PROFIL
  6
CONTINUOUS
 62
     7
 66
     1
 10
0.0
 20
0.0
 30
0.0
 70
   129
  0
VERTEX
  5
1E78
  8
SAPA_PROFIL
  6
CONTINUOUS
 62
     7
 10
58.297277581508581
 20
104.13343869899199
 30
0.0
 42
-0.4142135623730888
  0
VERTEX
  5
1E79
  8
SAPA_PROFIL
  6
CONTINUOUS
 62
     7
 10
57.699605104048317
 20
102.85172593488041
 30
0.0
  0
VERTEX
  5
1E7A
  8
SAPA_PROFIL
  6
CONTINUOUS
 62
     7
 10
15.977252741154929
 20
87.666031571221083
 30
0.0
 42
-0.4142135623730951
  0
VERTEX
  5
1E7B
  8
SAPA_PROFIL
  6
CONTINUOUS
 62
     7
 10
14.69553997704344
 20
88.263704048681333
 30
0.0
  0
VERTEX
  5
1E7C
  8
SAPA_PROFIL
  6
CONTINUOUS
 62
     7
 10
11.44634861544955
 20
97.190783946147477
 30
0.0
 42
-0.4142135623730992
  0
VERTEX
  5
1E7D
  8
SAPA_PROFIL
  6
CONTINUOUS
 62
     7
 10
12.044021092909761
 20
98.472496710259065
 30
0.0
  0
VERTEX
  5
1E7E
  8
SAPA_PROFIL
  6
CONTINUOUS
 62
     7
 10
16.178668624367731
 20
99.977385340891942
 30
0.0
 42
0.4142135623730951
  0
VERTEX
  5
1E7F
  8
SAPA_PROFIL
  6
CONTINUOUS
 62
     7
 10
16.47750486309792
 20
100.6182417229477
 30
0.0
  0
VERTEX
  5
1E80
  8
SAPA_PROFIL
  6
CONTINUOUS
 62
     7
 10
15.759262562113969
 20
102.5915962265982
 30
0.0
 42
0.4142135623730812
  0
VERTEX
  5
1E81
  8
SAPA_PROFIL
  6
CONTINUOUS
 62
     7
 10
15.3747487328805
 20
102.7708979698362
 30
0.0
  0
VERTEX
  5
1E82
  8
SAPA_PROFIL
  6
CONTINUOUS
 62
     7
 10
14.90490242248751
 20
102.59988789817341
 30
0.0
 42
0.4142135623730258
  0
VERTEX
  5
1E83
  8
SAPA_PROFIL
  6
CONTINUOUS
 62
     7
 10
14.72560067924945
 20
102.21537406893989
 30
0.0
  0
VERTEX
  5
1E84
  8
SAPA_PROFIL
  6
CONTINUOUS
 62
     7
 10
14.840733868259971
 20
101.8990482319027
 30
0.0
 42
-0.5643553431125478
  0
VERTEX
  5
1E85
  8
SAPA_PROFIL
  6
CONTINUOUS
 62
     7
 10
10.14021094178559
 20
102.1699435765638
 30
0.0
  0
VERTEX
  5
1E86
  8
SAPA_PROFIL
  6
CONTINUOUS
 62
     7
 10
10.36397655482358
 20
102.64981048229571
 30
0.0
  0
VERTEX
  5
1E87
  8
SAPA_PROFIL
  6
CONTINUOUS
 62
     7
 10
9.8841096490918403
 20
102.87357609533839
 30
0.0
 42
-0.5643553431119912
  0
VERTEX
  5
1E88
  8
SAPA_PROFIL
  6
CONTINUOUS
 62
     7
 10
13.310790945601349
 20
106.1025318649627
 30
0.0
  0
VERTEX
  5
1E89
  8
SAPA_PROFIL
  6
CONTINUOUS
 62
     7
 10
13.425924134611931
 20
105.7862060279263
 30
0.0
 42
0.4142135623730531
  0
VERTEX
  5
1E8A
  8
SAPA_PROFIL
  6
CONTINUOUS
 62
     7
 10
13.81043796384534
 20
105.6069042846883
 30
0.0
  0
VERTEX
  5
1E8B
  8
SAPA_PROFIL
  6
CONTINUOUS
 62
     7
 10
14.28028427423834
 20
105.7779143563511
 30
0.0
 42
0.4142135623731091
  0
VERTEX
  5
1E8C
  8
SAPA_PROFIL
  6
CONTINUOUS
 62
     7
 10
14.45958601747645
 20
106.1624281855846
 30
0.0
  0
VERTEX
  5
1E8D
  8
SAPA_PROFIL
  6
CONTINUOUS
 62
     7
 10
13.74134371649256
 20
108.135782689235
 30
0.0
 42
0.4142135623730951
  0
VERTEX
  5
1E8E
  8
SAPA_PROFIL
  6
CONTINUOUS
 62
     7
 10
13.100487334436711
 20
108.4346189279651
 30
0.0
  0
VERTEX
  5
1E8F
  8
SAPA_PROFIL
  6
CONTINUOUS
 62
     7
 10
8.9658398029787332
 20
106.9297302973322
 30
0.0
 42
-0.4142135623730951
  0
VERTEX
  5
1E90
  8
SAPA_PROFIL
  6
CONTINUOUS
 62
     7
 10
7.6841270388671878
 20
107.52740277479241
 30
0.0
  0
VERTEX
  5
1E91
  8
SAPA_PROFIL
  6
CONTINUOUS
 62
     7
 10
1.1881829621983679
 20
125.3748624434771
 30
0.0
 42
-0.3394542588633977
  0
VERTEX
  5
1E92
  8
SAPA_PROFIL
  6
CONTINUOUS
 62
     7
 10
1.554299146632786
 20
126.5360346310916
 30
0.0
  0
VERTEX
  5
1E93
  8
SAPA_PROFIL
  6
CONTINUOUS
 62
     7
 10
2.0082393618218921
 20
126.8538869916638
 30
0.0
 42
0.4002077966304456
  0
VERTEX
  5
1E94
  8
SAPA_PROFIL
  6
CONTINUOUS
 62
     7
 10
2.82478600263397
 20
130.91204008343141
 30
0.0
 42
-0.478297483036658
  0
VERTEX
  5
1E95
  8
SAPA_PROFIL
  6
CONTINUOUS
 62
     7
 10
2.9759075546228351
 20
131.3540175655572
 30
0.0
  0
VERTEX
  5
1E96
  8
SAPA_PROFIL
  6
CONTINUOUS
 62
     7
 10
39.57711724794467
 20
144.67576843206189
 30
0.0
 42
-0.4782974830366494
  0
VERTEX
  5
1E97
  8
SAPA_PROFIL
  6
CONTINUOUS
 62
     7
 10
39.976980722352152
 20
144.4343330990707
 30
0.0
 42
0.400207796630451
  0
VERTEX
  5
1E98
  8
SAPA_PROFIL
  6
CONTINUOUS
 62
     7
 10
43.211022264692922
 20
141.85047353724119
 30
0.0
  0
VERTEX
  5
1E99
  8
SAPA_PROFIL
  6
CONTINUOUS
 62
     7
 10
43.76307220313231
 20
141.89877164855471
 30
0.0
 42
-0.3394542588633866
  0
VERTEX
  5
1E9A
  8
SAPA_PROFIL
  6
CONTINUOUS
 62
     7
 10
44.789920566665437
 20
141.2445970937886
 30
0.0
  0
VERTEX
  5
1E9B
  8
SAPA_PROFIL
  6
CONTINUOUS
 62
     7
 10
51.285864643332381
 20
123.3971374251031
 30
0.0
 42
-0.4142135623730992
  0
VERTEX
  5
1E9C
  8
SAPA_PROFIL
  6
CONTINUOUS
 62
     7
 10
50.688192165872117
 20
122.11542466099149
 30
0.0
  0
VERTEX
  5
1E9D
  8
SAPA_PROFIL
  6
CONTINUOUS
 62
     7
 10
46.553544634414152
 20
120.6105360303586
 30
0.0
 42
0.4142135623730951
  0
VERTEX
  5
1E9E
  8
SAPA_PROFIL
  6
CONTINUOUS
 62
     7
 10
46.254708395684069
 20
119.9696796483027
 30
0.0
  0
VERTEX
  5
1E9F
  8
SAPA_PROFIL
  6
CONTINUOUS
 62
     7
 10
46.972950696667958
 20
117.9963251446523
 30
0.0
 42
0.4142135623730951
  0
VERTEX
  5
1EA0
  8
SAPA_PROFIL
  6
CONTINUOUS
 62
     7
 10
47.357464525901371
 20
117.8170234014143
 30
0.0
  0
VERTEX
  5
1EA1
  8
SAPA_PROFIL
  6
CONTINUOUS
 62
     7
 10
47.827310836294373
 20
117.9880334730771
 30
0.0
 42
0.4142135623730951
  0
VERTEX
  5
1EA2
  8
SAPA_PROFIL
  6
CONTINUOUS
 62
     7
 10
48.006612579532479
 20
118.37254730231059
 30
0.0
  0
VERTEX
  5
1EA3
  8
SAPA_PROFIL
  6
CONTINUOUS
 62
     7
 10
47.891479390521617
 20
118.68887313934751
 30
0.0
 42
-0.5643553431119912
  0
VERTEX
  5
1EA4
  8
SAPA_PROFIL
  6
CONTINUOUS
 62
     7
 10
52.592002316993948
 20
118.4179777946901
 30
0.0
  0
VERTEX
  5
1EA5
  8
SAPA_PROFIL
  6
CONTINUOUS
 62
     7
 10
52.368236703958416
 20
117.9381108889548
 30
0.0
  0
VERTEX
  5
1EA6
  8
SAPA_PROFIL
  6
CONTINUOUS
 62
     7
 10
52.848103609688962
 20
117.7143452759171
 30
0.0
 42
-0.5643553431125639
  0
VERTEX
  5
1EA7
  8
SAPA_PROFIL
  6
CONTINUOUS
 62
     7
 10
49.421422313180983
 20
114.48538950628669
 30
0.0
  0
VERTEX
  5
1EA8
  8
SAPA_PROFIL
  6
CONTINUOUS
 62
     7
 10
49.306289124170007
 20
114.8017153433242
 30
0.0
 42
0.4142135623730396
  0
VERTEX
  5
1EA9
  8
SAPA_PROFIL
  6
CONTINUOUS
 62
     7
 10
48.921775294936481
 20
114.9810170865622
 30
0.0
  0
VERTEX
  5
1EAA
  8
SAPA_PROFIL
  6
CONTINUOUS
 62
     7
 10
48.451928984543493
 20
114.8100070148994
 30
0.0
 42
0.4142135623731089
  0
VERTEX
  5
1EAB
  8
SAPA_PROFIL
  6
CONTINUOUS
 62
     7
 10
48.272627241305479
 20
114.4254931856659
 30
0.0
  0
VERTEX
  5
1EAC
  8
SAPA_PROFIL
  6
CONTINUOUS
 62
     7
 10
48.990869542289431
 20
112.4521386820155
 30
0.0
 42
0.4142135623730951
  0
VERTEX
  5
1EAD
  8
SAPA_PROFIL
  6
CONTINUOUS
 62
     7
 10
49.631725924345169
 20
112.1533024432854
 30
0.0
  0
VERTEX
  5
1EAE
  8
SAPA_PROFIL
  6
CONTINUOUS
 62
     7
 10
53.766373455803148
 20
113.6581910739183
 30
0.0
 42
-0.4142135623730951
  0
VERTEX
  5
1EAF
  8
SAPA_PROFIL
  6
CONTINUOUS
 62
     7
 10
55.048086219914751
 20
113.0605185964581
 30
0.0
  0
SEQEND
  5
1EB0
  8
SAPA_PROFIL
  6
CONTINUOUS
 62
     7
  0
POLYLINE
  5
10F5
  8
SAPA_GLAS
 66
     1
 10
0.0
 20
0.0
 30
0.0
  0
VERTEX
  5
1EDD
  8
SAPA_GLAS
 10
51.383213227003083
 20
175.1733927125552
 30
0.0
  0
VERTEX
  5
1EDE
  8
SAPA_GLAS
 10
23.192434603425919
 20
164.91278841278501
 30
0.0
  0
VERTEX
  5
1EDF
  8
SAPA_GLAS
 10
26.188531058959281
 20
156.68108105470029
 30
0.0
  0
VERTEX
  5
1EE0
  8
SAPA_GLAS
 10
54.379309682535933
 20
166.94168535447059
 30
0.0
  0
SEQEND
  5
1EE1
  8
SAPA_GLAS
  0
POLYLINE
  5
10F6
  8
SAPA_GLAS
 66
     1
 10
0.0
 20
0.0
 30
0.0
  0
VERTEX
  5
1EE2
  8
SAPA_GLAS
 10
23.192434603426211
 20
164.91278841278501
 30
0.0
  0
VERTEX
  5
1EE3
  8
SAPA_GLAS
 10
19.088192883518051
 20
176.18909986221601
 30
0.0
  0
VERTEX
  5
1EE4
  8
SAPA_GLAS
 10
28.485119091376902
 20
179.6093012954727
 30
0.0
  0
VERTEX
  5
1EE5
  8
SAPA_GLAS
 10
32.58936081128541
 20
168.3329898460419
 30
0.0
  0
VERTEX
  5
1EE6
  8
SAPA_GLAS
 10
23.192434603426211
 20
164.91278841278501
 30
0.0
  0
SEQEND
  5
1EE7
  8
SAPA_GLAS
  0
POLYLINE
  5
10F7
  8
SAPA_GLAS
 66
     1
 10
0.0
 20
0.0
 30
0.0
  0
VERTEX
  5
1EE8
  8
SAPA_GLAS
 10
45.226850647141028
 20
192.08785988670161
 30
0.0
  0
VERTEX
  5
1EE9
  8
SAPA_GLAS
 10
17.036072023563829
 20
181.82725558693139
 30
0.0
  0
VERTEX
  5
1EEA
  8
SAPA_GLAS
 10
19.088192883517848
 20
176.18909986221601
 30
0.0
  0
VERTEX
  5
1EEB
  8
SAPA_GLAS
 10
47.278971507095008
 20
186.44970416198629
 30
0.0
  0
SEQEND
  5
1EEC
  8
SAPA_GLAS
  0
LINE
  5
10F8
  8
SAPA_GLAS
 10
24.690482831192821
 20
160.79693473374269
 30
0.0
 11
52.881261454769501
 21
171.0575390335128
 31
0.0
  0
POLYLINE
  5
10F9
  8
SAPA_GLAS
 66
     1
 10
0.0
 20
0.0
 30
0.0
  0
VERTEX
  5
1EED
  8
SAPA_GLAS
 10
-51.499999999010242
 20
-40.999999999997982
 30
0.0
  0
VERTEX
  5
1EEE
  8
SAPA_GLAS
 10
-51.499999999010228
 20
-10.99999999999797
 30
0.0
  0
VERTEX
  5
1EEF
  8
SAPA_GLAS
 10
-45.499999999010228
 20
-10.99999999999797
 30
0.0
  0
VERTEX
  5
1EF0
  8
SAPA_GLAS
 10
-45.499999999010242
 20
-40.999999999997982
 30
0.0
  0
SEQEND
  5
1EF1
  8
SAPA_GLAS
  0
POLYLINE
  5
10FA
  8
SAPA_GLAS
 66
     1
 10
0.0
 20
0.0
 30
0.0
  0
VERTEX
  5
1EF2
  8
SAPA_GLAS
 10
-66.499999999011834
 20
-20.99999999999752
 30
0.0
  0
VERTEX
  5
1EF3
  8
SAPA_GLAS
 10
-51.499999999010242
 20
-20.99999999999752
 30
0.0
  0
VERTEX
  5
1EF4
  8
SAPA_GLAS
 10
-51.499999999010228
 20
-10.99999999999797
 30
0.0
  0
VERTEX
  5
1EF5
  8
SAPA_GLAS
 10
-66.499999999011834
 20
-10.99999999999797
 30
0.0
  0
VERTEX
  5
1EF6
  8
SAPA_GLAS
 10
-66.499999999011834
 20
-20.99999999999752
 30
0.0
  0
SEQEND
  5
1EF7
  8
SAPA_GLAS
  0
POLYLINE
  5
10FB
  8
SAPA_GLAS
 66
     1
 10
0.0
 20
0.0
 30
0.0
  0
VERTEX
  5
1EF8
  8
SAPA_GLAS
 10
-72.499999999011834
 20
-40.999999999997968
 30
0.0
  0
VERTEX
  5
1EF9
  8
SAPA_GLAS
 10
-72.499999999011891
 20
-10.99999999999797
 30
0.0
  0
VERTEX
  5
1EFA
  8
SAPA_GLAS
 10
-66.499999999011834
 20
-10.99999999999797
 30
0.0
  0
VERTEX
  5
1EFB
  8
SAPA_GLAS
 10
-66.499999999011834
 20
-40.999999999997968
 30
0.0
  0
SEQEND
  5
1EFC
  8
SAPA_GLAS
  0
POLYLINE
  5
1103
  8
SAPA_ISOLATOR
 66
     1
 10
0.0
 20
0.0
 30
0.0
 70
     1
  0
VERTEX
  5
1F2E
  8
SAPA_ISOLATOR
 10
-52.499999999009958
 20
-3.0999999999995111
 30
0.0
  0
VERTEX
  5
1F2F
  8
SAPA_ISOLATOR
 10
-52.499999999009958
 20
-4.4999999999996021
 30
0.0
 42
-0.4142135623730951
  0
VERTEX
  5
1F30
  8
SAPA_ISOLATOR
 10
-52.999999999009958
 20
-4.9999999999996021
 30
0.0
  0
VERTEX
  5
1F31
  8
SAPA_ISOLATOR
 10
-82.499999999009958
 20
-4.9999999999996021
 30
0.0
  0
VERTEX
  5
1F32
  8
SAPA_ISOLATOR
 10
-82.499999999009958
 20
-3.4999999999996021
 30
0.0
  0
VERTEX
  5
1F33
  8
SAPA_ISOLATOR
 10
-79.353553389603235
 20
-0.3535533839702225
 30
0.0
 42
0.4142135623730951
  0
VERTEX
  5
1F34
  8
SAPA_ISOLATOR
 10
-79.353553389603235
 20
0.3535533972164444
 30
0.0
  0
VERTEX
  5
1F35
  8
SAPA_ISOLATOR
 10
-82.499999999009916
 20
3.500000000000397
 30
0.0
  0
VERTEX
  5
1F36
  8
SAPA_ISOLATOR
 10
-82.499999999009916
 20
5.000000000000397
 30
0.0
  0
VERTEX
  5
1F37
  8
SAPA_ISOLATOR
 10
-52.999999999009901
 20
5.000000000000397
 30
0.0
 42
-0.4142135623730951
  0
VERTEX
  5
1F38
  8
SAPA_ISOLATOR
 10
-52.499999999009901
 20
4.500000000000397
 30
0.0
  0
VERTEX
  5
1F39
  8
SAPA_ISOLATOR
 10
-52.499999999009901
 20
3.1000000000003061
 30
0.0
  0
VERTEX
  5
1F3A
  8
SAPA_ISOLATOR
 10
-51.649999999009992
 20
2.250000000000397
 30
0.0
  0
VERTEX
  5
1F3B
  8
SAPA_ISOLATOR
 10
-47.094967040794813
 20
2.250000000000397
 30
0.0
 42
-0.0912836897734203
  0
VERTEX
  5
1F3C
  8
SAPA_ISOLATOR
 10
-44.975410007192629
 20
1.0313583321903359
 30
0.0
 42
-0.4609552212306286
  0
VERTEX
  5
1F3D
  8
SAPA_ISOLATOR
 10
-44.975410007192629
 20
-1.0313583321897679
 30
0.0
 42
-0.0912836897734202
  0
VERTEX
  5
1F3E
  8
SAPA_ISOLATOR
 10
-47.094967040794863
 20
-2.2499999999996021
 30
0.0
  0
VERTEX
  5
1F3F
  8
SAPA_ISOLATOR
 10
-51.649999999010049
 20
-2.2499999999996021
 30
0.0
  0
SEQEND
  5
1F40
  8
SAPA_ISOLATOR
  0
POLYLINE
  5
1104
  8
SAPA_ISOLATOR
 66
     1
 10
0.0
 20
0.0
 30
0.0
 70
     1
  0
VERTEX
  5
1F41
  8
SAPA_ISOLATOR
 10
-78.499999998265935
 20
-0.9142135546977102
 30
0.0
 42
0.1989123671061432
  0
VERTEX
  5
1F42
  8
SAPA_ISOLATOR
 10
-78.207106780196568
 20
-0.2071067742552373
 30
0.0
  0
VERTEX
  5
1F43
  8
SAPA_ISOLATOR
 10
-78.207106780196568
 20
0.2071067742558057
 30
0.0
 42
0.1989123671061405
  0
VERTEX
  5
1F44
  8
SAPA_ISOLATOR
 10
-78.499999998265935
 20
0.9142135546982785
 30
0.0
  0
VERTEX
  5
1F45
  8
SAPA_ISOLATOR
 10
-80.732233048648254
 20
3.1464466097790469
 30
0.0
 42
-0.6681786375387241
  0
VERTEX
  5
1F46
  8
SAPA_ISOLATOR
 10
-80.378679657682937
 20
4.000000000000397
 30
0.0
  0
VERTEX
  5
1F47
  8
SAPA_ISOLATOR
 10
-67.999999999009901
 20
4.000000000000397
 30
0.0
 42
-0.4142135623730951
  0
VERTEX
  5
1F48
  8
SAPA_ISOLATOR
 10
-67.499999999009901
 20
3.500000000000397
 30
0.0
  0
VERTEX
  5
1F49
  8
SAPA_ISOLATOR
 10
-67.499999999009958
 20
-3.4999999999996021
 30
0.0
 42
-0.4142135623730951
  0
VERTEX
  5
1F4A
  8
SAPA_ISOLATOR
 10
-67.999999999009958
 20
-3.9999999999996021
 30
0.0
  0
VERTEX
  5
1F4B
  8
SAPA_ISOLATOR
 10
-80.378679657682994
 20
-3.9999999999996021
 30
0.0
 42
-0.6681786375387241
  0
VERTEX
  5
1F4C
  8
SAPA_ISOLATOR
 10
-80.732233048648297
 20
-3.1464466097784789
 30
0.0
  0
SEQEND
  5
1F4D
  8
SAPA_ISOLATOR
  0
POLYLINE
  5
1105
  8
SAPA_ISOLATOR
 66
     1
 10
0.0
 20
0.0
 30
0.0
 70
     1
  0
VERTEX
  5
1F4E
  8
SAPA_ISOLATOR
 10
-52.064213561383319
 20
-1.2499999999996021
 30
0.0
  0
VERTEX
  5
1F4F
  8
SAPA_ISOLATOR
 10
-53.499999999009958
 20
-2.6857864376266321
 30
0.0
  0
VERTEX
  5
1F50
  8
SAPA_ISOLATOR
 10
-53.499999999009958
 20
-3.4999999999996021
 30
0.0
 42
-0.4142135623730951
  0
VERTEX
  5
1F51
  8
SAPA_ISOLATOR
 10
-53.999999999009951
 20
-3.9999999999996021
 30
0.0
  0
VERTEX
  5
1F52
  8
SAPA_ISOLATOR
 10
-65.999999999009958
 20
-3.9999999999996021
 30
0.0
 42
-0.4142135623730951
  0
VERTEX
  5
1F53
  8
SAPA_ISOLATOR
 10
-66.499999999009944
 20
-3.4999999999996021
 30
0.0
  0
VERTEX
  5
1F54
  8
SAPA_ISOLATOR
 10
-66.499999999009901
 20
3.500000000000397
 30
0.0
 42
-0.4142135623730951
  0
VERTEX
  5
1F55
  8
SAPA_ISOLATOR
 10
-65.999999999009901
 20
4.000000000000397
 30
0.0
  0
VERTEX
  5
1F56
  8
SAPA_ISOLATOR
 10
-53.999999999009901
 20
4.000000000000397
 30
0.0
 42
-0.4142135623730951
  0
VERTEX
  5
1F57
  8
SAPA_ISOLATOR
 10
-53.499999999009901
 20
3.500000000000397
 30
0.0
  0
VERTEX
  5
1F58
  8
SAPA_ISOLATOR
 10
-53.499999999009901
 20
2.6857864376272
 30
0.0
  0
VERTEX
  5
1F59
  8
SAPA_ISOLATOR
 10
-52.064213561382871
 20
1.250000000000397
 30
0.0
  0
VERTEX
  5
1F5A
  8
SAPA_ISOLATOR
 10
-46.769812025297021
 20
1.250000000000397
 30
0.0
 42
-0.065831318015991
  0
VERTEX
  5
1F5B
  8
SAPA_ISOLATOR
 10
-45.463605589831211
 20
0.3962382896033318
 30
0.0
 42
-0.3815575211595297
  0
VERTEX
  5
1F5C
  8
SAPA_ISOLATOR
 10
-45.380762060001757
 20
-0.2236312415528232
 30
0.0
 42
-0.0681340277693807
  0
VERTEX
  5
1F5D
  8
SAPA_ISOLATOR
 10
-46.769812025297021
 20
-1.2499999999996021
 30
0.0
  0
SEQEND
  5
1F5E
  8
SAPA_ISOLATOR
  0
POLYLINE
  5
1119
  8
SAPA_FOGBAND
 66
     1
 10
0.0
 20
0.0
 30
0.0
 70
     1
  0
VERTEX
  5
2104
  8
SAPA_FOGBAND
 10
30.845610668392279
 20
158.19598343838891
 30
0.0
 42
0.4679153941829814
  0
VERTEX
  5
2105
  8
SAPA_FOGBAND
 10
30.691350506539688
 20
157.93044366400429
 30
0.0
  0
VERTEX
  5
2106
  8
SAPA_FOGBAND
 10
32.24774908758836
 20
153.65372160480081
 30
0.0
 42
0.6685323900181767
  0
VERTEX
  5
2107
  8
SAPA_FOGBAND
 10
32.617031754587778
 20
153.63777931243311
 30
0.0
 42
-0.1991665782226247
  0
VERTEX
  5
2108
  8
SAPA_FOGBAND
 10
32.673501811659577
 20
153.68957541400309
 30
0.0
  0
VERTEX
  5
2109
  8
SAPA_FOGBAND
 10
35.105107365615297
 20
154.57460745711961
 30
0.0
 42
-0.4142135623731784
  0
VERTEX
  5
210A
  8
SAPA_FOGBAND
 10
35.361449918437572
 20
154.45507296162751
 30
0.0
  0
VERTEX
  5
210B
  8
SAPA_FOGBAND
 10
35.635066033098127
 20
153.70331886499869
 30
0.0
 42
0.4142135623731368
  0
VERTEX
  5
210C
  8
SAPA_FOGBAND
 10
35.891408585920388
 20
153.58378436950659
 30
0.0
  0
VERTEX
  5
210D
  8
SAPA_FOGBAND
 10
36.267285634234803
 20
153.72059242683699
 30
0.0
 42
-0.4142135623733448
  0
VERTEX
  5
210E
  8
SAPA_FOGBAND
 10
36.523628187056957
 20
153.60105793134491
 30
0.0
  0
VERTEX
  5
210F
  8
SAPA_FOGBAND
 10
36.890136565073533
 20
152.59408443870339
 30
0.0
 42
-0.703825529076487
  0
VERTEX
  5
2110
  8
SAPA_FOGBAND
 10
36.745330111606137
 20
152.47376866256889
 30
0.0
  0
VERTEX
  5
2111
  8
SAPA_FOGBAND
 10
35.642184602921013
 20
153.12500974391531
 30
0.0
 42
0.9999999999999856
  0
VERTEX
  5
2112
  8
SAPA_FOGBAND
 10
35.235487071810411
 20
152.43609964949911
 30
0.0
  0
VERTEX
  5
2113
  8
SAPA_FOGBAND
 10
36.785534784246657
 20
151.52103020450011
 30
0.0
 42
0.2242387338110932
  0
VERTEX
  5
2114
  8
SAPA_FOGBAND
 10
37.848524855764339
 20
151.42283645104291
 30
0.0
 42
0.2242387338111004
  0
VERTEX
  5
2115
  8
SAPA_FOGBAND
 10
38.599704765070001
 20
152.18133407741911
 30
0.0
  0
VERTEX
  5
2116
  8
SAPA_FOGBAND
 10
39.198914900503091
 20
153.87866940480561
 30
0.0
 42
1.0000000000000899
  0
VERTEX
  5
2117
  8
SAPA_FOGBAND
 10
38.444543643886803
 20
154.14498502055361
 30
0.0
  0
VERTEX
  5
2118
  8
SAPA_FOGBAND
 10
38.018094855015192
 20
152.93701714439331
 30
0.0
 42
-0.7038255290763446
  0
VERTEX
  5
2119
  8
SAPA_FOGBAND
 10
37.829829185859701
 20
152.93610458202909
 30
0.0
  0
VERTEX
  5
211A
  8
SAPA_FOGBAND
 10
37.463320807843083
 20
153.94307807467061
 30
0.0
 42
-0.4142135623729703
  0
VERTEX
  5
211B
  8
SAPA_FOGBAND
 10
37.582855303335052
 20
154.199420627493
 30
0.0
  0
VERTEX
  5
211C
  8
SAPA_FOGBAND
 10
37.958732351649388
 20
154.3362286848232
 30
0.0
 42
0.4142135623730117
  0
VERTEX
  5
211D
  8
SAPA_FOGBAND
 10
38.078266847141499
 20
154.5925712376455
 30
0.0
  0
VERTEX
  5
211E
  8
SAPA_FOGBAND
 10
37.804650732480837
 20
155.34432533427429
 30
0.0
 42
-0.4142135623731784
  0
VERTEX
  5
211F
  8
SAPA_FOGBAND
 10
37.924185227972913
 20
155.60066788709659
 30
0.0
  0
VERTEX
  5
2120
  8
SAPA_FOGBAND
 10
40.355790781928832
 20
156.4856999302126
 30
0.0
 42
-0.1991665782227297
  0
VERTEX
  5
2121
  8
SAPA_FOGBAND
 10
40.432343247670438
 20
156.4823200674337
 30
0.0
 42
0.6685323900181511
  0
VERTEX
  5
2122
  8
SAPA_FOGBAND
 10
40.704982674661579
 20
156.73190289473169
 30
0.0
  0
VERTEX
  5
2123
  8
SAPA_FOGBAND
 10
39.148594359812279
 20
161.00859674414289
 30
0.0
 42
0.4679406819625479
  0
VERTEX
  5
2124
  8
SAPA_FOGBAND
 10
38.859732866893232
 20
161.11287108749201
 30
0.0
  0
VERTEX
  5
2125
  8
SAPA_FOGBAND
 10
38.245510261856658
 20
160.75387867718811
 30
0.0
 42
0.3624646087620003
  0
VERTEX
  5
2126
  8
SAPA_FOGBAND
 10
38.158491868481242
 20
160.51280407429871
 30
0.0
  0
VERTEX
  5
2127
  8
SAPA_FOGBAND
 10
38.198001682964048
 20
160.4042517511603
 30
0.0
 42
-0.3515239862759624
  0
VERTEX
  5
2128
  8
SAPA_FOGBAND
 10
38.117607876541371
 20
160.167223484358
 30
0.0
  0
VERTEX
  5
2129
  8
SAPA_FOGBAND
 10
36.79614563586852
 20
159.3455130314824
 30
0.0
 42
-0.751570456352482
  0
VERTEX
  5
212A
  8
SAPA_FOGBAND
 10
36.653335333723852
 20
159.47401313197031
 30
0.0
  0
VERTEX
  5
212B
  8
SAPA_FOGBAND
 10
37.921109659825348
 20
160.1727899500718
 30
0.0
 42
0.7197481174277197
  0
VERTEX
  5
212C
  8
SAPA_FOGBAND
 10
37.446424368284219
 20
160.63677456669191
 30
0.0
  0
VERTEX
  5
212D
  8
SAPA_FOGBAND
 10
35.52675972856597
 20
159.65266056541759
 30
0.0
 42
-0.5053637834253038
  0
VERTEX
  5
212E
  8
SAPA_FOGBAND
 10
35.285227615899807
 20
159.65316235430359
 30
0.0
  0
VERTEX
  5
212F
  8
SAPA_FOGBAND
 10
35.255654952328896
 20
159.6934793180952
 30
0.0
 42
0.3333333333331249
  0
VERTEX
  5
2130
  8
SAPA_FOGBAND
 10
35.025983068499293
 20
159.7631271879697
 30
0.0
  0
VERTEX
  5
2131
  8
SAPA_FOGBAND
 10
34.650106020184907
 20
159.6263191306395
 30
0.0
 42
0.3333333333331312
  0
VERTEX
  5
2132
  8
SAPA_FOGBAND
 10
34.518935937632833
 20
159.425335525728
 30
0.0
  0
VERTEX
  5
2133
  8
SAPA_FOGBAND
 10
34.522197207821463
 20
159.37544199792339
 30
0.0
 42
-0.505363783425254
  0
VERTEX
  5
2134
  8
SAPA_FOGBAND
 10
34.337495418757648
 20
159.21980375597209
 30
0.0
  0
VERTEX
  5
2135
  8
SAPA_FOGBAND
 10
32.234370702311232
 20
158.73974217287949
 30
0.0
 42
0.7197481174279296
  0
VERTEX
  5
2136
  8
SAPA_FOGBAND
 10
32.168984235144521
 20
158.07918751172221
 30
0.0
  0
VERTEX
  5
2137
  8
SAPA_FOGBAND
 10
33.589320793395203
 20
158.35880304193191
 30
0.0
 42
-0.7515704563522813
  0
VERTEX
  5
2138
  8
SAPA_FOGBAND
 10
33.562520027454177
 20
158.16856956125849
 30
0.0
  0
VERTEX
  5
2139
  8
SAPA_FOGBAND
 10
32.022035923336958
 20
157.94861673256349
 30
0.0
 42
-0.3515239862759173
  0
VERTEX
  5
213A
  8
SAPA_FOGBAND
 10
31.808091861619449
 20
158.0785147765458
 30
0.0
  0
VERTEX
  5
213B
  8
SAPA_FOGBAND
 10
31.768582047136722
 20
158.1870670996839
 30
0.0
 42
0.3624646087620678
  0
VERTEX
  5
213C
  8
SAPA_FOGBAND
 10
31.546962322694881
 20
158.31580661452799
 30
0.0
  0
SEQEND
  5
213D
  8
SAPA_FOGBAND
  0
POLYLINE
  5
111A
  8
SAPA_FOGBAND
 66
     1
 10
0.0
 20
0.0
 30
0.0
 70
     1
  0
VERTEX
  5
213E
  8
SAPA_FOGBAND
 10
19.78973133413907
 20
187.9967281415266
 30
0.0
 42
-0.4142135623731784
  0
VERTEX
  5
213F
  8
SAPA_FOGBAND
 10
19.670196838647211
 20
187.7403855887043
 30
0.0
  0
VERTEX
  5
2140
  8
SAPA_FOGBAND
 10
15.037954866386871
 20
186.05438739288269
 30
0.0
 42
0.2663342079579515
  0
VERTEX
  5
2141
  8
SAPA_FOGBAND
 10
14.396232187329289
 20
185.2942777874685
 30
0.0
  0
VERTEX
  5
2142
  8
SAPA_FOGBAND
 10
13.1159042430137
 20
180.4781624547808
 30
0.0
 42
0.052861208559515
  0
VERTEX
  5
2143
  8
SAPA_FOGBAND
 10
13.10011783323761
 20
180.26789859752401
 30
0.0
 42
0.2389362379610746
  0
VERTEX
  5
2144
  8
SAPA_FOGBAND
 10
13.758385766026951
 20
179.18382106315761
 30
0.0
 42
0.4294697894411934
  0
VERTEX
  5
2145
  8
SAPA_FOGBAND
 10
14.03472810270164
 20
179.2720112725969
 30
0.0
  0
VERTEX
  5
2146
  8
SAPA_FOGBAND
 10
16.607640381069171
 20
182.59140427460619
 30
0.0
 42
-0.1982170680849751
  0
VERTEX
  5
2147
  8
SAPA_FOGBAND
 10
17.170793982262531
 20
183.10605514187469
 30
0.0
  0
VERTEX
  5
2148
  8
SAPA_FOGBAND
 10
17.282296016494978
 20
183.1466385633957
 30
0.0
 42
-0.2084822249037384
  0
VERTEX
  5
2149
  8
SAPA_FOGBAND
 10
18.079952092855208
 20
183.09711216109241
 30
0.0
  0
VERTEX
  5
214A
  8
SAPA_FOGBAND
 10
22.001667820498309
 20
183.86403580342889
 30
0.0
  0
VERTEX
  5
214B
  8
SAPA_FOGBAND
 10
22.396834241900169
 20
184.39472694147759
 30
0.0
  0
VERTEX
  5
214C
  8
SAPA_FOGBAND
 10
18.944762857330751
 20
184.199768258837
 30
0.0
 42
-0.6313983151680102
  0
VERTEX
  5
214D
  8
SAPA_FOGBAND
 10
19.061240379367351
 20
184.72881338731071
 30
0.0
  0
VERTEX
  5
214E
  8
SAPA_FOGBAND
 10
21.847016397627879
 20
185.37437007893149
 30
0.0
 42
-0.379100851898285
  0
VERTEX
  5
214F
  8
SAPA_FOGBAND
 10
22.19664947849893
 20
185.18472060963481
 30
0.0
  0
VERTEX
  5
2150
  8
SAPA_FOGBAND
 10
22.276806271465912
 20
184.96449163094209
 30
0.0
 42
0.4142135623730951
  0
VERTEX
  5
2151
  8
SAPA_FOGBAND
 10
22.661320100699459
 20
184.78518988770441
 30
0.0
  0
VERTEX
  5
2152
  8
SAPA_FOGBAND
 10
26.938538812306088
 20
186.34197018417561
 30
0.0
  0
VERTEX
  5
2153
  8
SAPA_FOGBAND
 10
33.062675086581059
 20
188.01579691577879
 30
0.0
  0
VERTEX
  5
2154
  8
SAPA_FOGBAND
 10
33.062675086581059
 20
188.01579691577879
 30
0.0
  0
VERTEX
  5
2155
  8
SAPA_FOGBAND
 10
33.472719414287191
 20
188.60808223368321
 30
0.0
 42
-0.0144193411868444
  0
VERTEX
  5
2156
  8
SAPA_FOGBAND
 10
32.918349531029939
 20
189.73062474547069
 30
0.0
  0
VERTEX
  5
2157
  8
SAPA_FOGBAND
 10
27.529757948260059
 20
189.536854114524
 30
0.0
  0
VERTEX
  5
2158
  8
SAPA_FOGBAND
 10
26.897020683107609
 20
191.27528546297779
 30
0.0
 42
0.4142135623731212
  0
VERTEX
  5
2159
  8
SAPA_FOGBAND
 10
26.70476376849075
 20
191.3649363345969
 30
0.0
  0
VERTEX
  5
215A
  8
SAPA_FOGBAND
 10
25.65588739381943
 20
190.98317655479121
 30
0.0
 42
0.3812119866949899
  0
VERTEX
  5
215B
  8
SAPA_FOGBAND
 10
25.561316481189529
 20
190.8072827798517
 30
0.0
  0
VERTEX
  5
215C
  8
SAPA_FOGBAND
 10
25.733433180298459
 20
190.08869591810159
 30
0.0
 42
-0.3812119866949819
  0
VERTEX
  5
215D
  8
SAPA_FOGBAND
 10
25.638862267668131
 20
189.91280214316191
 30
0.0
  0
VERTEX
  5
215E
  8
SAPA_FOGBAND
 10
22.489274701004849
 20
188.76644601868151
 30
0.0
 42
-0.4142135623730951
  0
VERTEX
  5
215F
  8
SAPA_FOGBAND
 10
22.232932148182339
 20
188.8859805141733
 30
0.0
  0
VERTEX
  5
2160
  8
SAPA_FOGBAND
 10
21.959316033522249
 20
189.63773461080211
 30
0.0
 42
0.4142135623730951
  0
VERTEX
  5
2161
  8
SAPA_FOGBAND
 10
21.702973480699669
 20
189.7572691062941
 30
0.0
  0
VERTEX
  5
2162
  8
SAPA_FOGBAND
 10
21.327096432385218
 20
189.6204610489639
 30
0.0
 42
-0.4142135623731784
  0
VERTEX
  5
2163
  8
SAPA_FOGBAND
 10
21.07075387956306
 20
189.73999554445601
 30
0.0
  0
VERTEX
  5
2164
  8
SAPA_FOGBAND
 10
20.70424550154652
 20
190.7469690370973
 30
0.0
 42
-0.7038255290761633
  0
VERTEX
  5
2165
  8
SAPA_FOGBAND
 10
20.84905195501387
 20
190.867284813232
 30
0.0
  0
VERTEX
  5
2166
  8
SAPA_FOGBAND
 10
21.95219746369915
 20
190.21604373188561
 30
0.0
 42
0.9999999999999552
  0
VERTEX
  5
2167
  8
SAPA_FOGBAND
 10
22.35889499480971
 20
190.90495382630181
 30
0.0
  0
VERTEX
  5
2168
  8
SAPA_FOGBAND
 10
20.808847282373279
 20
191.82002327130101
 30
0.0
 42
0.2242387338111004
  0
VERTEX
  5
2169
  8
SAPA_FOGBAND
 10
19.745857210855931
 20
191.91821702475789
 30
0.0
 42
0.2242387338111007
  0
VERTEX
  5
216A
  8
SAPA_FOGBAND
 10
18.994677301550151
 20
191.15971939838209
 30
0.0
  0
VERTEX
  5
216B
  8
SAPA_FOGBAND
 10
18.39546716611714
 20
189.4623840709954
 30
0.0
 42
0.9999999999999548
  0
VERTEX
  5
216C
  8
SAPA_FOGBAND
 10
19.14983842273335
 20
189.1960684552472
 30
0.0
  0
VERTEX
  5
216D
  8
SAPA_FOGBAND
 10
19.576287211604999
 20
190.4040363314077
 30
0.0
 42
-0.7038255290761636
  0
VERTEX
  5
216E
  8
SAPA_FOGBAND
 10
19.764552880760611
 20
190.40494889377169
 30
0.0
  0
VERTEX
  5
216F
  8
SAPA_FOGBAND
 10
20.13106125877707
 20
189.39797540113051
 30
0.0
 42
-0.4142135623730117
  0
VERTEX
  5
2170
  8
SAPA_FOGBAND
 10
20.011526763285211
 20
189.14163284830821
 30
0.0
  0
VERTEX
  5
2171
  8
SAPA_FOGBAND
 10
19.635649714970839
 20
189.00482479097769
 30
0.0
 42
0.4142135623730951
  0
VERTEX
  5
2172
  8
SAPA_FOGBAND
 10
19.516115219478468
 20
188.7484822381555
 30
0.0
  0
SEQEND
  5
2173
  8
SAPA_FOGBAND
  0
POLYLINE
  5
111B
  8
SAPA_FOGBAND
 66
     1
 10
0.0
 20
0.0
 30
0.0
 70
     1
  0
VERTEX
  5
2174
  8
SAPA_FOGBAND
 10
-74.164228703859635
 20
22.879356795614001
 30
0.0
  0
VERTEX
  5
2175
  8
SAPA_FOGBAND
 10
-76.299999999010765
 20
22.879356795614228
 30
0.0
 42
0.4142135623730951
  0
VERTEX
  5
2176
  8
SAPA_FOGBAND
 10
-76.499999999010811
 20
22.67935679561419
 30
0.0
  0
VERTEX
  5
2177
  8
SAPA_FOGBAND
 10
-76.499999999010811
 20
20.629356795614001
 30
0.0
 42
-0.4142135623730951
  0
VERTEX
  5
2178
  8
SAPA_FOGBAND
 10
-76.999999999010811
 20
20.129356795614012
 30
0.0
  0
VERTEX
  5
2179
  8
SAPA_FOGBAND
 10
-77.726794918253972
 20
20.129356795614012
 30
0.0
  0
VERTEX
  5
217A
  8
SAPA_FOGBAND
 10
-77.794254827564373
 20
20.381120604634539
 30
0.0
 42
0.4740571810232154
  0
VERTEX
  5
217B
  8
SAPA_FOGBAND
 10
-78.076537413203027
 20
20.50841446699809
 30
0.0
  0
VERTEX
  5
217C
  8
SAPA_FOGBAND
 10
-79.522743549962797
 20
19.888313964239561
 30
0.0
 42
0.2846003776496056
  0
VERTEX
  5
217D
  8
SAPA_FOGBAND
 10
-79.799999999010765
 20
19.440669785779331
 30
0.0
  0
VERTEX
  5
217E
  8
SAPA_FOGBAND
 10
-79.799999999010765
 20
17.818043805448891
 30
0.0
 42
0.2846003776496054
  0
VERTEX
  5
217F
  8
SAPA_FOGBAND
 10
-79.522743549962797
 20
17.370399626988672
 30
0.0
  0
VERTEX
  5
2180
  8
SAPA_FOGBAND
 10
-78.076537413203027
 20
16.750299124230139
 30
0.0
 42
0.4740571810232154
  0
VERTEX
  5
2181
  8
SAPA_FOGBAND
 10
-77.794254827564373
 20
16.877592986593701
 30
0.0
  0
VERTEX
  5
2182
  8
SAPA_FOGBAND
 10
-77.726794918253972
 20
17.129356795614001
 30
0.0
  0
VERTEX
  5
2183
  8
SAPA_FOGBAND
 10
-76.999999999010811
 20
17.129356795614001
 30
0.0
 42
-0.4142135623730951
  0
VERTEX
  5
2184
  8
SAPA_FOGBAND
 10
-76.499999999010811
 20
16.629356795614001
 30
0.0
  0
VERTEX
  5
2185
  8
SAPA_FOGBAND
 10
-76.499999999010811
 20
13.57935679561405
 30
0.0
 42
-0.4142135623730951
  0
VERTEX
  5
2186
  8
SAPA_FOGBAND
 10
-76.699999999010856
 20
13.379356795613999
 30
0.0
  0
VERTEX
  5
2187
  8
SAPA_FOGBAND
 10
-77.599999999010834
 20
13.37935679561423
 30
0.0
 42
0.4142135623730951
  0
VERTEX
  5
2188
  8
SAPA_FOGBAND
 10
-77.799999999010765
 20
13.179356795614179
 30
0.0
  0
VERTEX
  5
2189
  8
SAPA_FOGBAND
 10
-77.799999999010879
 20
12.479356795614139
 30
0.0
 42
0.4142135623730951
  0
VERTEX
  5
218A
  8
SAPA_FOGBAND
 10
-77.499999999010811
 20
12.179356795614179
 30
0.0
  0
VERTEX
  5
218B
  8
SAPA_FOGBAND
 10
-76.689488222359273
 20
12.179356795614179
 30
0.0
 42
-0.1316524975873982
  0
VERTEX
  5
218C
  8
SAPA_FOGBAND
 10
-75.689488222359273
 20
11.91140760318302
 30
0.0
  0
VERTEX
  5
218D
  8
SAPA_FOGBAND
 10
-73.054121304015098
 20
7.9406950660808793
 30
0.0
 42
0.876976462992761
  0
VERTEX
  5
218E
  8
SAPA_FOGBAND
 10
-72.53677996789861
 20
8.0436006559911561
 30
0.0
  0
VERTEX
  5
218F
  8
SAPA_FOGBAND
 10
-73.09062476444285
 20
13.46826221786336
 30
0.0
 42
-0.1353185728426623
  0
VERTEX
  5
2190
  8
SAPA_FOGBAND
 10
-73.09062476444285
 20
13.46826221786336
 30
0.0
  0
VERTEX
  5
2191
  8
SAPA_FOGBAND
 10
-72.678588072042658
 20
13.706151710692151
 30
0.0
 42
0.5773502691896196
  0
VERTEX
  5
2192
  8
SAPA_FOGBAND
 10
-72.678588072042658
 20
14.052561872206009
 30
0.0
  0
VERTEX
  5
2193
  8
SAPA_FOGBAND
 10
-73.090898634604514
 20
14.290609488936919
 30
0.0
  0
VERTEX
  5
2194
  8
SAPA_FOGBAND
 10
-73.090898634604514
 20
15.068104098853549
 30
0.0
  0
VERTEX
  5
2195
  8
SAPA_FOGBAND
 10
-72.678588072042658
 20
15.306151710692291
 30
0.0
 42
0.5773502691896196
  0
VERTEX
  5
2196
  8
SAPA_FOGBAND
 10
-72.678588072042658
 20
15.65256187220592
 30
0.0
  0
VERTEX
  5
2197
  8
SAPA_FOGBAND
 10
-73.090898634604514
 20
15.89060948893683
 30
0.0
  0
VERTEX
  5
2198
  8
SAPA_FOGBAND
 10
-73.090898634604514
 20
16.668104098853458
 30
0.0
  0
VERTEX
  5
2199
  8
SAPA_FOGBAND
 10
-72.678588072042658
 20
16.9061517106922
 30
0.0
 42
0.5773502691896196
  0
VERTEX
  5
219A
  8
SAPA_FOGBAND
 10
-72.678588072042658
 20
17.252561872206059
 30
0.0
  0
VERTEX
  5
219B
  8
SAPA_FOGBAND
 10
-73.090898634604514
 20
17.490609488936741
 30
0.0
  0
VERTEX
  5
219C
  8
SAPA_FOGBAND
 10
-73.090898634604514
 20
18.268104098853598
 30
0.0
  0
VERTEX
  5
219D
  8
SAPA_FOGBAND
 10
-72.678588072042658
 20
18.506151710692109
 30
0.0
 42
0.5773502691896196
  0
VERTEX
  5
219E
  8
SAPA_FOGBAND
 10
-72.678588072042658
 20
18.852561872205971
 30
0.0
  0
VERTEX
  5
219F
  8
SAPA_FOGBAND
 10
-73.090898634604514
 20
19.090609488936881
 30
0.0
  0
VERTEX
  5
21A0
  8
SAPA_FOGBAND
 10
-73.090898634604514
 20
19.868104098853511
 30
0.0
  0
VERTEX
  5
21A1
  8
SAPA_FOGBAND
 10
-72.678588072042658
 20
20.106151710692249
 30
0.0
 42
0.5773502691896196
  0
VERTEX
  5
21A2
  8
SAPA_FOGBAND
 10
-72.678588072042658
 20
20.452561872206111
 30
0.0
  0
VERTEX
  5
21A3
  8
SAPA_FOGBAND
 10
-73.090898634604514
 20
20.69060948893679
 30
0.0
  0
VERTEX
  5
21A4
  8
SAPA_FOGBAND
 10
-73.090898634604514
 20
21.468104103018451
 30
0.0
  0
VERTEX
  5
21A5
  8
SAPA_FOGBAND
 10
-72.678588072042658
 20
21.706151714857189
 30
0.0
 42
0.5773502691896196
  0
VERTEX
  5
21A6
  8
SAPA_FOGBAND
 10
-72.678588072042658
 20
22.052561876371051
 30
0.0
  0
VERTEX
  5
21A7
  8
SAPA_FOGBAND
 10
-74.064228703088929
 20
22.852561875926028
 30
0.0
 42
0.1316524987190407
  0
SEQEND
  5
21A8
  8
SAPA_FOGBAND
  0
POLYLINE
  5
111C
  8
SAPA_FOGBAND
 66
     1
 10
0.0
 20
0.0
 30
0.0
 70
     1
  0
VERTEX
  5
21A9
  8
SAPA_FOGBAND
 10
-77.599999999010834
 20
19.529356795614088
 30
0.0
 42
-0.9999999999999998
  0
VERTEX
  5
21AA
  8
SAPA_FOGBAND
 10
-77.599999999010834
 20
17.729356795614141
 30
0.0
  0
VERTEX
  5
21AB
  8
SAPA_FOGBAND
 10
-78.199999999010856
 20
17.729356795614141
 30
0.0
 42
-0.9999999999999998
  0
VERTEX
  5
21AC
  8
SAPA_FOGBAND
 10
-78.199999999010856
 20
19.529356795614088
 30
0.0
  0
SEQEND
  5
21AD
  8
SAPA_FOGBAND
  0
INSERT
  5
111D
  8
SAPA_FOGBAND
  6
CONTINUOUS
  2
*U113
 10
0.0
 20
0.0
 30
0.0
1001
ACAD
1002
{
1000
R14_HATCH_DATA
1000
111D
1011
1.0
1021
9.6624448855087411E+070
1031
1.1042794167622994E+071
1021
0.0
1031
0.0
1011
0.0
1021
9.6624448855087411E+070
1031
1.1042794167622994E+071
1021
1.0
1031
0.0
1011
0.0
1021
9.6624448855087411E+070
1031
1.1042794167622994E+071
1021
0.0
1031
1.0
1040
0.0
1010
0.0
1020
0.0
1030
1.0
1000
SOLID
1070
     1
1070
     0
1071
        1
1071
        1
1071
        1
1070
     2
1040
-75.02846685536008
1040
18.62935679561404
1040
0.2549509756796394
1040
0.0
1040
6.2831853071795862
1070
     0
1071
        0
1070
     0
1070
     1
1071
        1
1040
-74.946615358031181
1040
18.392617894043941
1040
0.0
1002
}
  0
CIRCLE
  5
111E
  8
SAPA_FOGBAND
 10
-75.028466855359966
 20
18.629356795614221
 30
0.0
 40
0.2549509756796394
  0
CIRCLE
  5
111F
  8
SAPA_FOGBAND
 10
-75.02846685536008
 20
-18.62935679561566
 30
0.0
 40
0.2549509756796394
  0
INSERT
  5
1120
  8
SAPA_FOGBAND
  6
CONTINUOUS
  2
*U114
 10
0.0
 20
0.0
 30
0.0
1001
ACAD
1002
{
1000
R14_HATCH_DATA
1000
1120
1011
1.0
1021
9.6624448855087411E+070
1031
1.1042794167622994E+071
1021
0.0
1031
0.0
1011
0.0
1021
9.6624448855087411E+070
1031
1.1042794167622994E+071
1021
1.0
1031
0.0
1011
0.0
1021
9.6624448855087411E+070
1031
1.1042794167622994E+071
1021
0.0
1031
1.0
1040
0.0
1010
0.0
1020
0.0
1030
1.0
1000
SOLID
1070
     1
1070
     1
1071
        1
1071
        1
1071
        1
1070
     3
1040
-75.02846685536008
1040
-18.62935679561566
1040
0.1802775637732059
1040
0.1802775637732059
1040
0.999999999999957
1040
-0.7853981633974698
1040
5.4977871437821157
1070
     0
1071
        1
1005
111F
1070
     0
1070
     1
1071
        1
1040
9.2008398681107337
1040
24.653020573776981
1040
0.0
1002
}
  0
POLYLINE
  5
1121
  8
SAPA_FOGBAND
 66
     1
 10
0.0
 20
0.0
 30
0.0
 70
     1
  0
VERTEX
  5
2240
  8
SAPA_FOGBAND
 10
-77.599999999010933
 20
-17.729356795615569
 30
0.0
 42
-0.9999999999999998
  0
VERTEX
  5
2241
  8
SAPA_FOGBAND
 10
-77.599999999010933
 20
-19.529356795615531
 30
0.0
  0
VERTEX
  5
2242
  8
SAPA_FOGBAND
 10
-78.19999999901097
 20
-19.529356795615531
 30
0.0
 42
-0.9999999999999998
  0
VERTEX
  5
2243
  8
SAPA_FOGBAND
 10
-78.19999999901097
 20
-17.729356795615569
 30
0.0
  0
SEQEND
  5
2244
  8
SAPA_FOGBAND
  0
POLYLINE
  5
1122
  8
SAPA_FOGBAND
 66
     1
 10
0.0
 20
0.0
 30
0.0
 70
     1
  0
VERTEX
  5
2245
  8
SAPA_FOGBAND
 10
-74.164228703859749
 20
-14.37935679561566
 30
0.0
  0
VERTEX
  5
2246
  8
SAPA_FOGBAND
 10
-76.299999999010865
 20
-14.37935679561544
 30
0.0
 42
0.4142135623730951
  0
VERTEX
  5
2247
  8
SAPA_FOGBAND
 10
-76.499999999010925
 20
-14.57935679561548
 30
0.0
  0
VERTEX
  5
2248
  8
SAPA_FOGBAND
 10
-76.499999999010925
 20
-16.62935679561566
 30
0.0
 42
-0.4142135623730951
  0
VERTEX
  5
2249
  8
SAPA_FOGBAND
 10
-76.999999999010925
 20
-17.12935679561566
 30
0.0
  0
VERTEX
  5
224A
  8
SAPA_FOGBAND
 10
-77.726794918254086
 20
-17.12935679561566
 30
0.0
  0
VERTEX
  5
224B
  8
SAPA_FOGBAND
 10
-77.794254827564487
 20
-16.877592986595129
 30
0.0
 42
0.4740571810232154
  0
VERTEX
  5
224C
  8
SAPA_FOGBAND
 10
-78.076537413203141
 20
-16.750299124231571
 30
0.0
  0
VERTEX
  5
224D
  8
SAPA_FOGBAND
 10
-79.522743549962911
 20
-17.3703996269901
 30
0.0
 42
0.2846003776496056
  0
VERTEX
  5
224E
  8
SAPA_FOGBAND
 10
-79.799999999010879
 20
-17.81804380545033
 30
0.0
  0
VERTEX
  5
224F
  8
SAPA_FOGBAND
 10
-79.799999999010879
 20
-19.44066978578077
 30
0.0
 42
0.2846003776496054
  0
VERTEX
  5
2250
  8
SAPA_FOGBAND
 10
-79.522743549962911
 20
-19.888313964240989
 30
0.0
  0
VERTEX
  5
2251
  8
SAPA_FOGBAND
 10
-78.076537413203141
 20
-20.508414466999529
 30
0.0
 42
0.4740571810232154
  0
VERTEX
  5
2252
  8
SAPA_FOGBAND
 10
-77.794254827564487
 20
-20.381120604635971
 30
0.0
  0
VERTEX
  5
2253
  8
SAPA_FOGBAND
 10
-77.726794918254086
 20
-20.12935679561566
 30
0.0
  0
VERTEX
  5
2254
  8
SAPA_FOGBAND
 10
-76.999999999010925
 20
-20.12935679561566
 30
0.0
 42
-0.4142135623730951
  0
VERTEX
  5
2255
  8
SAPA_FOGBAND
 10
-76.499999999010925
 20
-20.62935679561566
 30
0.0
  0
VERTEX
  5
2256
  8
SAPA_FOGBAND
 10
-76.499999999010925
 20
-23.679356795615622
 30
0.0
 42
-0.4142135623730951
  0
VERTEX
  5
2257
  8
SAPA_FOGBAND
 10
-76.69999999901097
 20
-23.87935679561566
 30
0.0
  0
VERTEX
  5
2258
  8
SAPA_FOGBAND
 10
-77.599999999010933
 20
-23.87935679561544
 30
0.0
 42
0.4142135623730951
  0
VERTEX
  5
2259
  8
SAPA_FOGBAND
 10
-77.799999999010879
 20
-24.079356795615482
 30
0.0
  0
VERTEX
  5
225A
  8
SAPA_FOGBAND
 10
-77.799999999010993
 20
-24.779356795615531
 30
0.0
 42
0.4142135623730951
  0
VERTEX
  5
225B
  8
SAPA_FOGBAND
 10
-77.499999999010925
 20
-25.079356795615482
 30
0.0
  0
VERTEX
  5
225C
  8
SAPA_FOGBAND
 10
-76.689488222359387
 20
-25.079356795615482
 30
0.0
 42
-0.1316524975873982
  0
VERTEX
  5
225D
  8
SAPA_FOGBAND
 10
-75.689488222359387
 20
-25.347305988046639
 30
0.0
  0
VERTEX
  5
225E
  8
SAPA_FOGBAND
 10
-73.054121304015212
 20
-29.318018525148791
 30
0.0
 42
0.876976462992761
  0
VERTEX
  5
225F
  8
SAPA_FOGBAND
 10
-72.536779967898724
 20
-29.215112935238508
 30
0.0
  0
VERTEX
  5
2260
  8
SAPA_FOGBAND
 10
-73.090624764442964
 20
-23.790451373366309
 30
0.0
 42
-0.1353185728426623
  0
VERTEX
  5
2261
  8
SAPA_FOGBAND
 10
-73.090624764442964
 20
-23.790451373366309
 30
0.0
  0
VERTEX
  5
2262
  8
SAPA_FOGBAND
 10
-72.678588072042771
 20
-23.55256188053751
 30
0.0
 42
0.5773502691896196
  0
VERTEX
  5
2263
  8
SAPA_FOGBAND
 10
-72.678588072042771
 20
-23.206151719023659
 30
0.0
  0
VERTEX
  5
2264
  8
SAPA_FOGBAND
 10
-73.090898634604628
 20
-22.968104102292749
 30
0.0
  0
VERTEX
  5
2265
  8
SAPA_FOGBAND
 10
-73.090898634604628
 20
-22.190609492376112
 30
0.0
  0
VERTEX
  5
2266
  8
SAPA_FOGBAND
 10
-72.678588072042771
 20
-21.952561880537381
 30
0.0
 42
0.5773502691896196
  0
VERTEX
  5
2267
  8
SAPA_FOGBAND
 10
-72.678588072042771
 20
-21.606151719023739
 30
0.0
  0
VERTEX
  5
2268
  8
SAPA_FOGBAND
 10
-73.090898634604628
 20
-21.368104102292829
 30
0.0
  0
VERTEX
  5
2269
  8
SAPA_FOGBAND
 10
-73.090898634604628
 20
-20.59060949237621
 30
0.0
  0
VERTEX
  5
226A
  8
SAPA_FOGBAND
 10
-72.678588072042771
 20
-20.352561880537468
 30
0.0
 42
0.5773502691896196
  0
VERTEX
  5
226B
  8
SAPA_FOGBAND
 10
-72.678588072042771
 20
-20.00615171902361
 30
0.0
  0
VERTEX
  5
226C
  8
SAPA_FOGBAND
 10
-73.090898634604628
 20
-19.76810410229292
 30
0.0
  0
VERTEX
  5
226D
  8
SAPA_FOGBAND
 10
-73.090898634604628
 20
-18.990609492376059
 30
0.0
  0
VERTEX
  5
226E
  8
SAPA_FOGBAND
 10
-72.678588072042771
 20
-18.752561880537549
 30
0.0
 42
0.5773502691896196
  0
VERTEX
  5
226F
  8
SAPA_FOGBAND
 10
-72.678588072042771
 20
-18.406151719023701
 30
0.0
  0
VERTEX
  5
2270
  8
SAPA_FOGBAND
 10
-73.090898634604628
 20
-18.168104102292791
 30
0.0
  0
VERTEX
  5
2271
  8
SAPA_FOGBAND
 10
-73.090898634604628
 20
-17.390609492376161
 30
0.0
  0
VERTEX
  5
2272
  8
SAPA_FOGBAND
 10
-72.678588072042771
 20
-17.152561880537419
 30
0.0
 42
0.5773502691896196
  0
VERTEX
  5
2273
  8
SAPA_FOGBAND
 10
-72.678588072042771
 20
-16.806151719023561
 30
0.0
  0
VERTEX
  5
2274
  8
SAPA_FOGBAND
 10
-73.090898634604628
 20
-16.568104102292882
 30
0.0
  0
VERTEX
  5
2275
  8
SAPA_FOGBAND
 10
-73.090898634604628
 20
-15.790609488211221
 30
0.0
  0
VERTEX
  5
2276
  8
SAPA_FOGBAND
 10
-72.678588072042771
 20
-15.552561876372479
 30
0.0
 42
0.5773502691896196
  0
VERTEX
  5
2277
  8
SAPA_FOGBAND
 10
-72.678588072042771
 20
-15.20615171485862
 30
0.0
  0
VERTEX
  5
2278
  8
SAPA_FOGBAND
 10
-74.064228703089043
 20
-14.40615171530364
 30
0.0
 42
0.1316524987190407
  0
SEQEND
  5
2279
  8
SAPA_FOGBAND
  0
POLYLINE
  5
1123
  8
SAPA_FOGBAND
 66
     1
 10
0.0
 20
0.0
 30
0.0
 70
     1
  0
VERTEX
  5
227A
  8
SAPA_FOGBAND
 10
-33.585369501371133
 20
-19.301327184517749
 30
0.0
  0
VERTEX
  5
227B
  8
SAPA_FOGBAND
 10
-34.185369501371049
 20
-19.301327184517749
 30
0.0
 42
0.9999999999999998
  0
VERTEX
  5
227C
  8
SAPA_FOGBAND
 10
-34.185369501371049
 20
-21.101327184517942
 30
0.0
  0
VERTEX
  5
227D
  8
SAPA_FOGBAND
 10
-33.585369501371133
 20
-21.101327184517942
 30
0.0
 42
0.9999999999999998
  0
SEQEND
  5
227E
  8
SAPA_FOGBAND
  0
POLYLINE
  5
1124
  8
SAPA_FOGBAND
 66
     1
 10
0.0
 20
0.0
 30
0.0
  0
VERTEX
  5
227F
  8
SAPA_FOGBAND
 10
-35.499999999009788
 20
-23.801327184517749
 30
0.0
  0
VERTEX
  5
2280
  8
SAPA_FOGBAND
 10
-35.799999999009742
 20
-23.801327184517749
 30
0.0
 42
-0.4142135623730951
  0
VERTEX
  5
2281
  8
SAPA_FOGBAND
 10
-36.299999999009742
 20
-23.30132718451776
 30
0.0
  0
VERTEX
  5
2282
  8
SAPA_FOGBAND
 10
-36.299999999009742
 20
-16.001327184517571
 30
0.0
 42
-0.4142135623730951
  0
VERTEX
  5
2283
  8
SAPA_FOGBAND
 10
-35.799999999009742
 20
-15.501327184517571
 30
0.0
  0
VERTEX
  5
2284
  8
SAPA_FOGBAND
 10
-35.499999999009788
 20
-15.501327184518029
 30
0.0
  0
SEQEND
  5
2285
  8
SAPA_FOGBAND
  0
POLYLINE
  5
1125
  8
SAPA_FOGBAND
 10
-40.561832548750417
 20
-22.264574318355052
 30
0.0
 66
     1
 70
     8
  0
VERTEX
  8
SAPA_FOGBAND
  5
22A9
 10
-40.5618
 20
-22.2646
 30
0.000000
  70
    32
  0
VERTEX
  8
SAPA_FOGBAND
  5
22AA
 10
-40.6446
 20
-22.2598
 30
0.000000
  70
    32
  0
VERTEX
  8
SAPA_FOGBAND
  5
22AB
 10
-40.7271
 20
-22.2470
 30
0.000000
  70
    32
  0
VERTEX
  8
SAPA_FOGBAND
  5
22AC
 10
-40.8091
 20
-22.2264
 30
0.000000
  70
    32
  0
VERTEX
  8
SAPA_FOGBAND
  5
22AD
 10
-40.8904
 20
-22.1979
 30
0.000000
  70
    32
  0
VERTEX
  8
SAPA_FOGBAND
  5
22AE
 10
-40.9709
 20
-22.1616
 30
0.000000
  70
    32
  0
VERTEX
  8
SAPA_FOGBAND
  5
22AF
 10
-41.0503
 20
-22.1177
 30
0.000000
  70
    32
  0
VERTEX
  8
SAPA_FOGBAND
  5
22B0
 10
-41.1285
 20
-22.0661
 30
0.000000
  70
    32
  0
VERTEX
  8
SAPA_FOGBAND
  5
22B1
 10
-41.2052
 20
-22.0071
 30
0.000000
  70
    32
  0
VERTEX
  8
SAPA_FOGBAND
  5
22B2
 10
-41.2802
 20
-21.9407
 30
0.000000
  70
    32
  0
VERTEX
  8
SAPA_FOGBAND
  5
22B3
 10
-41.3535
 20
-21.8672
 30
0.000000
  70
    32
  0
VERTEX
  8
SAPA_FOGBAND
  5
22B4
 10
-41.4248
 20
-21.7867
 30
0.000000
  70
    32
  0
VERTEX
  8
SAPA_FOGBAND
  5
22B5
 10
-41.4939
 20
-21.6994
 30
0.000000
  70
    32
  0
VERTEX
  8
SAPA_FOGBAND
  5
22B6
 10
-41.5607
 20
-21.6055
 30
0.000000
  70
    32
  0
VERTEX
  8
SAPA_FOGBAND
  5
22B7
 10
-41.6250
 20
-21.5052
 30
0.000000
  70
    32
  0
VERTEX
  8
SAPA_FOGBAND
  5
22B8
 10
-41.6867
 20
-21.3989
 30
0.000000
  70
    32
  0
VERTEX
  8
SAPA_FOGBAND
  5
22B9
 10
-41.7455
 20
-21.2867
 30
0.000000
  70
    32
  0
VERTEX
  8
SAPA_FOGBAND
  5
22BA
 10
-41.8015
 20
-21.1688
 30
0.000000
  70
    32
  0
VERTEX
  8
SAPA_FOGBAND
  5
22BB
 10
-41.8544
 20
-21.0457
 30
0.000000
  70
    32
  0
VERTEX
  8
SAPA_FOGBAND
  5
22BC
 10
-41.9041
 20
-20.9176
 30
0.000000
  70
    32
  0
VERTEX
  8
SAPA_FOGBAND
  5
22BD
 10
-41.9504
 20
-20.7848
 30
0.000000
  70
    32
  0
VERTEX
  8
SAPA_FOGBAND
  5
22BE
 10
-41.9934
 20
-20.6475
 30
0.000000
  70
    32
  0
VERTEX
  8
SAPA_FOGBAND
  5
22BF
 10
-42.0328
 20
-20.5063
 30
0.000000
  70
    32
  0
VERTEX
  8
SAPA_FOGBAND
  5
22C0
 10
-42.0686
 20
-20.3613
 30
0.000000
  70
    32
  0
VERTEX
  8
SAPA_FOGBAND
  5
22C1
 10
-42.1007
 20
-20.2130
 30
0.000000
  70
    32
  0
VERTEX
  8
SAPA_FOGBAND
  5
22C2
 10
-42.1290
 20
-20.0616
 30
0.000000
  70
    32
  0
VERTEX
  8
SAPA_FOGBAND
  5
22C3
 10
-42.1535
 20
-19.9077
 30
0.000000
  70
    32
  0
VERTEX
  8
SAPA_FOGBAND
  5
22C4
 10
-42.1740
 20
-19.7514
 30
0.000000
  70
    32
  0
VERTEX
  8
SAPA_FOGBAND
  5
22C5
 10
-42.1906
 20
-19.5933
 30
0.000000
  70
    32
  0
VERTEX
  8
SAPA_FOGBAND
  5
22C6
 10
-42.2032
 20
-19.4336
 30
0.000000
  70
    32
  0
VERTEX
  8
SAPA_FOGBAND
  5
22C7
 10
-42.2117
 20
-19.2729
 30
0.000000
  70
    32
  0
VERTEX
  8
SAPA_FOGBAND
  5
22C8
 10
-42.2162
 20
-19.1114
 30
0.000000
  70
    32
  0
VERTEX
  8
SAPA_FOGBAND
  5
22C9
 10
-42.2166
 20
-18.9495
 30
0.000000
  70
    32
  0
VERTEX
  8
SAPA_FOGBAND
  5
22CA
 10
-42.2130
 20
-18.7877
 30
0.000000
  70
    32
  0
VERTEX
  8
SAPA_FOGBAND
  5
22CB
 10
-42.2053
 20
-18.6263
 30
0.000000
  70
    32
  0
VERTEX
  8
SAPA_FOGBAND
  5
22CC
 10
-42.1935
 20
-18.4657
 30
0.000000
  70
    32
  0
VERTEX
  8
SAPA_FOGBAND
  5
22CD
 10
-42.1778
 20
-18.3064
 30
0.000000
  70
    32
  0
VERTEX
  8
SAPA_FOGBAND
  5
22CE
 10
-42.1581
 20
-18.1486
 30
0.000000
  70
    32
  0
VERTEX
  8
SAPA_FOGBAND
  5
22CF
 10
-42.1344
 20
-17.9928
 30
0.000000
  70
    32
  0
VERTEX
  8
SAPA_FOGBAND
  5
22D0
 10
-42.1069
 20
-17.8393
 30
0.000000
  70
    32
  0
VERTEX
  8
SAPA_FOGBAND
  5
22D1
 10
-42.0756
 20
-17.6886
 30
0.000000
  70
    32
  0
VERTEX
  8
SAPA_FOGBAND
  5
22D2
 10
-42.0406
 20
-17.5409
 30
0.000000
  70
    32
  0
VERTEX
  8
SAPA_FOGBAND
  5
22D3
 10
-42.0019
 20
-17.3967
 30
0.000000
  70
    32
  0
VERTEX
  8
SAPA_FOGBAND
  5
22D4
 10
-41.9596
 20
-17.2562
 30
0.000000
  70
    32
  0
VERTEX
  8
SAPA_FOGBAND
  5
22D5
 10
-41.9140
 20
-17.1199
 30
0.000000
  70
    32
  0
VERTEX
  8
SAPA_FOGBAND
  5
22D6
 10
-41.8650
 20
-16.9880
 30
0.000000
  70
    32
  0
VERTEX
  8
SAPA_FOGBAND
  5
22D7
 10
-41.8127
 20
-16.8609
 30
0.000000
  70
    32
  0
VERTEX
  8
SAPA_FOGBAND
  5
22D8
 10
-41.7574
 20
-16.7389
 30
0.000000
  70
    32
  0
VERTEX
  8
SAPA_FOGBAND
  5
22D9
 10
-41.6991
 20
-16.6222
 30
0.000000
  70
    32
  0
VERTEX
  8
SAPA_FOGBAND
  5
22DA
 10
-41.6380
 20
-16.5112
 30
0.000000
  70
    32
  0
VERTEX
  8
SAPA_FOGBAND
  5
22DB
 10
-41.5742
 20
-16.4061
 30
0.000000
  70
    32
  0
VERTEX
  8
SAPA_FOGBAND
  5
22DC
 10
-41.5079
 20
-16.3071
 30
0.000000
  70
    32
  0
VERTEX
  8
SAPA_FOGBAND
  5
22DD
 10
-41.4393
 20
-16.2146
 30
0.000000
  70
    32
  0
VERTEX
  8
SAPA_FOGBAND
  5
22DE
 10
-41.3685
 20
-16.1287
 30
0.000000
  70
    32
  0
VERTEX
  8
SAPA_FOGBAND
  5
22DF
 10
-41.2956
 20
-16.0496
 30
0.000000
  70
    32
  0
VERTEX
  8
SAPA_FOGBAND
  5
22E0
 10
-41.2209
 20
-15.9775
 30
0.000000
  70
    32
  0
VERTEX
  8
SAPA_FOGBAND
  5
22E1
 10
-41.1445
 20
-15.9127
 30
0.000000
  70
    32
  0
VERTEX
  8
SAPA_FOGBAND
  5
22E2
 10
-41.0666
 20
-15.8552
 30
0.000000
  70
    32
  0
VERTEX
  8
SAPA_FOGBAND
  5
22E3
 10
-40.9875
 20
-15.8052
 30
0.000000
  70
    32
  0
VERTEX
  8
SAPA_FOGBAND
  5
22E4
 10
-40.9072
 20
-15.7628
 30
0.000000
  70
    32
  0
VERTEX
  8
SAPA_FOGBAND
  5
22E5
 10
-40.8260
 20
-15.7281
 30
0.000000
  70
    32
  0
VERTEX
  8
SAPA_FOGBAND
  5
22E6
 10
-40.7442
 20
-15.7013
 30
0.000000
  70
    32
  0
VERTEX
  8
SAPA_FOGBAND
  5
22E7
 10
-40.6617
 20
-15.6823
 30
0.000000
  70
    32
  0
VERTEX
  8
SAPA_FOGBAND
  5
22E8
 10
-40.5790
 20
-15.6712
 30
0.000000
  70
    32
  0
VERTEX
  8
SAPA_FOGBAND
  5
22E9
 10
-40.4962
 20
-15.6680
 30
0.000000
  70
    32
  0
VERTEX
  8
SAPA_FOGBAND
  5
22EA
 10
-40.4134
 20
-15.6728
 30
0.000000
  70
    32
  0
VERTEX
  8
SAPA_FOGBAND
  5
22EB
 10
-40.3309
 20
-15.6856
 30
0.000000
  70
    32
  0
VERTEX
  8
SAPA_FOGBAND
  5
22EC
 10
-40.2489
 20
-15.7062
 30
0.000000
  70
    32
  0
VERTEX
  8
SAPA_FOGBAND
  5
22ED
 10
-40.1676
 20
-15.7347
 30
0.000000
  70
    32
  0
VERTEX
  8
SAPA_FOGBAND
  5
22EE
 10
-40.0871
 20
-15.7710
 30
0.000000
  70
    32
  0
VERTEX
  8
SAPA_FOGBAND
  5
22EF
 10
-40.0077
 20
-15.8149
 30
0.000000
  70
    32
  0
VERTEX
  8
SAPA_FOGBAND
  5
22F0
 10
-39.9296
 20
-15.8665
 30
0.000000
  70
    32
  0
VERTEX
  8
SAPA_FOGBAND
  5
22F1
 10
-39.8529
 20
-15.9255
 30
0.000000
  70
    32
  0
VERTEX
  8
SAPA_FOGBAND
  5
22F2
 10
-39.7778
 20
-15.9919
 30
0.000000
  70
    32
  0
VERTEX
  8
SAPA_FOGBAND
  5
22F3
 10
-39.7045
 20
-16.0654
 30
0.000000
  70
    32
  0
VERTEX
  8
SAPA_FOGBAND
  5
22F4
 10
-39.6332
 20
-16.1459
 30
0.000000
  70
    32
  0
VERTEX
  8
SAPA_FOGBAND
  5
22F5
 10
-39.5641
 20
-16.2332
 30
0.000000
  70
    32
  0
VERTEX
  8
SAPA_FOGBAND
  5
22F6
 10
-39.4973
 20
-16.3271
 30
0.000000
  70
    32
  0
VERTEX
  8
SAPA_FOGBAND
  5
22F7
 10
-39.4330
 20
-16.4274
 30
0.000000
  70
    32
  0
VERTEX
  8
SAPA_FOGBAND
  5
22F8
 10
-39.3713
 20
-16.5337
 30
0.000000
  70
    32
  0
VERTEX
  8
SAPA_FOGBAND
  5
22F9
 10
-39.3125
 20
-16.6460
 30
0.000000
  70
    32
  0
VERTEX
  8
SAPA_FOGBAND
  5
22FA
 10
-39.2565
 20
-16.7638
 30
0.000000
  70
    32
  0
VERTEX
  8
SAPA_FOGBAND
  5
22FB
 10
-39.2036
 20
-16.8869
 30
0.000000
  70
    32
  0
VERTEX
  8
SAPA_FOGBAND
  5
22FC
 10
-39.1539
 20
-17.0150
 30
0.000000
  70
    32
  0
VERTEX
  8
SAPA_FOGBAND
  5
22FD
 10
-39.1076
 20
-17.1479
 30
0.000000
  70
    32
  0
VERTEX
  8
SAPA_FOGBAND
  5
22FE
 10
-39.0646
 20
-17.2851
 30
0.000000
  70
    32
  0
VERTEX
  8
SAPA_FOGBAND
  5
22FF
 10
-39.0252
 20
-17.4263
 30
0.000000
  70
    32
  0
VERTEX
  8
SAPA_FOGBAND
  5
2300
 10
-38.9894
 20
-17.5713
 30
0.000000
  70
    32
  0
VERTEX
  8
SAPA_FOGBAND
  5
2301
 10
-38.9573
 20
-17.7196
 30
0.000000
  70
    32
  0
VERTEX
  8
SAPA_FOGBAND
  5
2302
 10
-38.9290
 20
-17.8710
 30
0.000000
  70
    32
  0
VERTEX
  8
SAPA_FOGBAND
  5
2303
 10
-38.9045
 20
-18.0249
 30
0.000000
  70
    32
  0
VERTEX
  8
SAPA_FOGBAND
  5
2304
 10
-38.8840
 20
-18.1812
 30
0.000000
  70
    32
  0
VERTEX
  8
SAPA_FOGBAND
  5
2305
 10
-38.8674
 20
-18.3393
 30
0.000000
  70
    32
  0
VERTEX
  8
SAPA_FOGBAND
  5
2306
 10
-38.8548
 20
-18.4990
 30
0.000000
  70
    32
  0
VERTEX
  8
SAPA_FOGBAND
  5
2307
 10
-38.8463
 20
-18.6597
 30
0.000000
  70
    32
  0
VERTEX
  8
SAPA_FOGBAND
  5
2308
 10
-38.8418
 20
-18.8212
 30
0.000000
  70
    32
  0
VERTEX
  8
SAPA_FOGBAND
  5
2309
 10
-38.8414
 20
-18.9831
 30
0.000000
  70
    32
  0
VERTEX
  8
SAPA_FOGBAND
  5
230A
 10
-38.8450
 20
-19.1449
 30
0.000000
  70
    32
  0
VERTEX
  8
SAPA_FOGBAND
  5
230B
 10
-38.8527
 20
-19.3063
 30
0.000000
  70
    32
  0
VERTEX
  8
SAPA_FOGBAND
  5
230C
 10
-38.8645
 20
-19.4669
 30
0.000000
  70
    32
  0
VERTEX
  8
SAPA_FOGBAND
  5
230D
 10
-38.8802
 20
-19.6262
 30
0.000000
  70
    32
  0
VERTEX
  8
SAPA_FOGBAND
  5
230E
 10
-38.8999
 20
-19.7840
 30
0.000000
  70
    32
  0
VERTEX
  8
SAPA_FOGBAND
  5
230F
 10
-38.9236
 20
-19.9398
 30
0.000000
  70
    32
  0
VERTEX
  8
SAPA_FOGBAND
  5
2310
 10
-38.9511
 20
-20.0933
 30
0.000000
  70
    32
  0
VERTEX
  8
SAPA_FOGBAND
  5
2311
 10
-38.9824
 20
-20.2440
 30
0.000000
  70
    32
  0
VERTEX
  8
SAPA_FOGBAND
  5
2312
 10
-39.0175
 20
-20.3917
 30
0.000000
  70
    32
  0
VERTEX
  8
SAPA_FOGBAND
  5
2313
 10
-39.0561
 20
-20.5359
 30
0.000000
  70
    32
  0
VERTEX
  8
SAPA_FOGBAND
  5
2314
 10
-39.0984
 20
-20.6764
 30
0.000000
  70
    32
  0
VERTEX
  8
SAPA_FOGBAND
  5
2315
 10
-39.1440
 20
-20.8127
 30
0.000000
  70
    32
  0
VERTEX
  8
SAPA_FOGBAND
  5
2316
 10
-39.1931
 20
-20.9446
 30
0.000000
  70
    32
  0
VERTEX
  8
SAPA_FOGBAND
  5
2317
 10
-39.2453
 20
-21.0717
 30
0.000000
  70
    32
  0
VERTEX
  8
SAPA_FOGBAND
  5
2318
 10
-39.3006
 20
-21.1937
 30
0.000000
  70
    32
  0
VERTEX
  8
SAPA_FOGBAND
  5
2319
 10
-39.3589
 20
-21.3104
 30
0.000000
  70
    32
  0
VERTEX
  8
SAPA_FOGBAND
  5
231A
 10
-39.4200
 20
-21.4214
 30
0.000000
  70
    32
  0
VERTEX
  8
SAPA_FOGBAND
  5
231B
 10
-39.4838
 20
-21.5266
 30
0.000000
  70
    32
  0
VERTEX
  8
SAPA_FOGBAND
  5
231C
 10
-39.5501
 20
-21.6255
 30
0.000000
  70
    32
  0
VERTEX
  8
SAPA_FOGBAND
  5
231D
 10
-39.6187
 20
-21.7180
 30
0.000000
  70
    32
  0
VERTEX
  8
SAPA_FOGBAND
  5
231E
 10
-39.6896
 20
-21.8040
 30
0.000000
  70
    32
  0
VERTEX
  8
SAPA_FOGBAND
  5
231F
 10
-39.7624
 20
-21.8830
 30
0.000000
  70
    32
  0
VERTEX
  8
SAPA_FOGBAND
  5
2320
 10
-39.8371
 20
-21.9551
 30
0.000000
  70
    32
  0
VERTEX
  8
SAPA_FOGBAND
  5
2321
 10
-39.9135
 20
-22.0199
 30
0.000000
  70
    32
  0
VERTEX
  8
SAPA_FOGBAND
  5
2322
 10
-39.9914
 20
-22.0774
 30
0.000000
  70
    32
  0
VERTEX
  8
SAPA_FOGBAND
  5
2323
 10
-40.0705
 20
-22.1274
 30
0.000000
  70
    32
  0
VERTEX
  8
SAPA_FOGBAND
  5
2324
 10
-40.1508
 20
-22.1698
 30
0.000000
  70
    32
  0
VERTEX
  8
SAPA_FOGBAND
  5
2325
 10
-40.2320
 20
-22.2045
 30
0.000000
  70
    32
  0
VERTEX
  8
SAPA_FOGBAND
  5
2326
 10
-40.3139
 20
-22.2313
 30
0.000000
  70
    32
  0
VERTEX
  8
SAPA_FOGBAND
  5
2327
 10
-40.3963
 20
-22.2503
 30
0.000000
  70
    32
  0
VERTEX
  8
SAPA_FOGBAND
  5
2328
 10
-40.4790
 20
-22.2614
 30
0.000000
  70
    32
  0
VERTEX
  8
SAPA_FOGBAND
  5
2329
 10
-40.5618
 20
-22.2646
 30
0.000000
  70
    32
  0
SEQEND
  8
SAPA_FOGBAND
  5
232A
  0
POLYLINE
  5
1126
  8
SAPA_FOGBAND
 66
     1
 10
0.0
 20
0.0
 30
0.0
 70
     1
  0
VERTEX
  5
2286
  8
SAPA_FOGBAND
 10
-43.953324864972721
 20
-8.8913247649973286
 30
0.0
  0
VERTEX
  5
2287
  8
SAPA_FOGBAND
 10
-44.445277204862798
 20
-11.892651927566719
 30
0.0
 42
0.4464785874932524
  0
VERTEX
  5
2288
  8
SAPA_FOGBAND
 10
-43.45119989975683
 20
-13.001327184518029
 30
0.0
  0
VERTEX
  5
2289
  8
SAPA_FOGBAND
 10
-39.85014774559977
 20
-13.001327184518029
 30
0.0
 42
0.622676997742357
  0
VERTEX
  5
228A
  8
SAPA_FOGBAND
 10
-39.058266017436367
 20
-11.390652697904009
 30
0.0
  0
VERTEX
  5
228B
  8
SAPA_FOGBAND
 10
-41.533301339953361
 20
-8.3893255353348444
 30
0.0
 42
0.232531183213058
  0
VERTEX
  5
228C
  8
SAPA_FOGBAND
 10
-42.325183068116971
 20
-8.0000000219484058
 30
0.0
  0
VERTEX
  5
228D
  8
SAPA_FOGBAND
 10
-42.959247559866967
 20
-8.0000000219486331
 30
0.0
 42
0.3826682380870913
  0
SEQEND
  5
228E
  8
SAPA_FOGBAND
  0
POLYLINE
  5
1127
  8
SAPA_FOGBAND
 66
     1
 10
0.0
 20
0.0
 30
0.0
 70
     1
  0
VERTEX
  5
228F
  8
SAPA_FOGBAND
 10
-33.99111467281751
 20
-21.953090993538151
 30
0.0
 42
0.4740571810231764
  0
VERTEX
  5
2290
  8
SAPA_FOGBAND
 10
-33.708832087178962
 20
-22.080384855901929
 30
0.0
  0
VERTEX
  5
2291
  8
SAPA_FOGBAND
 10
-32.262625950418851
 20
-21.46028435314318
 30
0.0
 42
0.2846003776496257
  0
VERTEX
  5
2292
  8
SAPA_FOGBAND
 10
-31.985369501371
 20
-21.012640174683181
 30
0.0
  0
VERTEX
  5
2293
  8
SAPA_FOGBAND
 10
-31.985369501371
 20
-19.39001419435251
 30
0.0
 42
0.2846003776496159
  0
VERTEX
  5
2294
  8
SAPA_FOGBAND
 10
-32.262625950419078
 20
-18.942370015892511
 30
0.0
  0
VERTEX
  5
2295
  8
SAPA_FOGBAND
 10
-33.708832087178962
 20
-18.322269513133762
 30
0.0
 42
0.4740571810232354
  0
VERTEX
  5
2296
  8
SAPA_FOGBAND
 10
-33.99111467281751
 20
-18.449563375497089
 30
0.0
  0
VERTEX
  5
2297
  8
SAPA_FOGBAND
 10
-34.058574582127903
 20
-18.701327184517851
 30
0.0
  0
VERTEX
  5
2298
  8
SAPA_FOGBAND
 10
-34.999999999010022
 20
-18.701327184517851
 30
0.0
 42
-0.4142135623730951
  0
VERTEX
  5
2299
  8
SAPA_FOGBAND
 10
-35.499999999010022
 20
-18.201327184517851
 30
0.0
  0
VERTEX
  5
229A
  8
SAPA_FOGBAND
 10
-35.499999999009788
 20
-15.17322763378322
 30
0.0
 42
0.1657205760184635
  0
VERTEX
  5
229B
  8
SAPA_FOGBAND
 10
-35.708118270846398
 20
-14.56255314716943
 30
0.0
  0
VERTEX
  5
229C
  8
SAPA_FOGBAND
 10
-41.102703355702253
 20
-5.1946627566924484
 30
0.0
 42
0.2325311832130358
  0
VERTEX
  5
229D
  8
SAPA_FOGBAND
 10
-41.498644219784168
 20
-4.9999999999993419
 30
0.0
  0
VERTEX
  5
229E
  8
SAPA_FOGBAND
 10
-43.729387776221749
 20
-4.9999999999993392
 30
0.0
 42
0.3826682380870913
  0
VERTEX
  5
229F
  8
SAPA_FOGBAND
 10
-44.723465081327497
 20
-5.8913247430484921
 30
0.0
  0
VERTEX
  5
22A0
  8
SAPA_FOGBAND
 10
-45.499999999010228
 20
-11.49579350334513
 30
0.0
  0
VERTEX
  5
22A1
  8
SAPA_FOGBAND
 10
-45.499999999010242
 20
-25.20132716256855
 30
0.0
 42
0.4257917699693507
  0
VERTEX
  5
22A2
  8
SAPA_FOGBAND
 10
-45.188192636479471
 20
-25.501094716166591
 30
0.0
  0
VERTEX
  5
22A3
  8
SAPA_FOGBAND
 10
-35.788192636478932
 20
-25.01325490149727
 30
0.0
 42
0.4027293761437475
  0
VERTEX
  5
22A4
  8
SAPA_FOGBAND
 10
-35.499999999009788
 20
-24.713487347899239
 30
0.0
  0
VERTEX
  5
22A5
  8
SAPA_FOGBAND
 10
-35.499999999010022
 20
-22.201327184517851
 30
0.0
 42
-0.4142135623730951
  0
VERTEX
  5
22A6
  8
SAPA_FOGBAND
 10
-34.999999999010022
 20
-21.70132718451762
 30
0.0
  0
VERTEX
  5
22A7
  8
SAPA_FOGBAND
 10
-34.058574582127903
 20
-21.70132718451762
 30
0.0
  0
SEQEND
  5
22A8
  8
SAPA_FOGBAND
  0
VIEWPORT
  5
C4
 67
     1
  8
0
 10
143.06236603067589
 20
116.00969601843509
 30
0.0
 40
369.98580003443811
 41
256.8421457311839
 68
     1
 69
     1
1001
ACAD
1000
MVIEW
1002
{
1070
    16
1010
0.0
1020
0.0
1030
0.0
1010
0.0
1020
0.0
1030
1.0
1040
0.0
1040
256.8421457311839
1040
99.112914085388169
1040
143.07606935501099
1040
50.0
1040
0.0
1040
0.0
1070
     0
1070
     0
1070
     1
1070
     1
1070
     0
1070
     0
1070
     0
1070
     0
1040
0.0
1040
0.0
1040
0.0
1040
10.0
1040
10.0
1040
10.0
1040
10.0
1070
     0
1002
{
1002
}
1002
}
  0
ENDSEC
  0
EOF
